Seiya's Memories (Sailor Moon) Guitar Tab

Submitted: Oct 09, 2009 by styx01x (Last updated: Feb 06, 2010)

0
Download | Listen
Game: Sailor Moon
Composer(s): Takanori Arisawa
Style: Alternate picking, Transcription

AutoScroll: Slow | Medium | Fast
Seiya's Memories (Seiya no omoi)
Sailor Moon
Composed by Takanori Arisawa
Arranged by Styx01x
10/9/09


     Q    Q    Q    E  E     Q    Q    Q.     E     Q    Q    E  E  Q     
E||-----------------5--6--|--8----5--------------|--5----5-------5-------|
B||--6---------8----------|------------6------8--|------------8-----8----|
G||-------5---------------|----------------------|-----------------------|
D||-----------------------|----------------------|-----------------------|
A||-----------------------|----------------------|-----------------------|
E||-----------------------|----------------------|-----------------------|


  E  E  E  E  H           Q    Q    Q    E  E     Q    Q    Q.     E   
-----------------------|-----------------5--6--|--8----5--------------|
--6--------6--8--------|--6---------8----------|------------6------8--|
--------5--------------|-------5---------------|----------------------|
-----7-----------------|-----------------------|----------------------|
-----------------------|-----------------------|----------------------|
-----------------------|-----------------------|----------------------|


  Q    Q     E   E   E   E      H         H           W                  
--5----8----12--10----------|----------------------|--1----------------||
--------------------13--11--|--10------------------|--1----------------||
----------------------------|------------12--------|--2----------------||
----------------------------|----------------------|--3----------------||
----------------------------|----------------------|--3----------------||
----------------------------|----------------------|--1----------------||




Duration Legend
---------------
W - whole
H - half
Q - quarter
E - 8th
S - 16th
T - 32nd
X - 64th
. - note dotted
|-n-|  - n-tuplets


Tablature Legend
----------------
L - tied note
x - dead note
g - grace note
(n) - ghost note
> - accentuded note
NH - natural harmonic
AH - artificial harmonic
TH - tapped harmonic
SH - semi harmonic
PH - pitch harmonic
h - hammer on
p - pull off
b - bend
br - bendRelease
pb - preBend
pbr - preBendRelease
brb - bendReleaseBend
\n/ - tremolo bar dip
\n - tremolo bar dive
-/n - tremolo bar Release up
/n\ - tremolo bar inverted dip
/n - tremolo bar return
-\n - tremolo bar Release down
S - shift slide
s - legato slide
/ -  slide into from below or out of upwards
\ -  slide into from above or out of downwards
~ - vibrato
W - wide vibrato
tr - trill
TP - tremolo picking
T - tapping
S - slap
P - pop
< - fade in
^ - brush up
v - brush down
Login or Register to remove this ad.