Ads

Moonlight Densetsu (Sailor Moon) Guitar Tab

Submitted: Jul 17, 2013 by Basisti94 (Last updated: Jul 22, 2013)

5
Average: 5 (13 votes)
Download | Listen
Game: Sailor Moon
Composer(s): Takanori Arisawa
Style: Arrangement, Fingerstyle

AutoScroll: Slow | Medium | Fast
                            Moonlight Densetsu
                                
Sailor Moon
DALI
Arrangement by Basisti94 (Miro Laaksonen)
17.7.2013

Probably one of the most iconic anime songs.

(This is updated version. Old one was slightly easier
so I included it on a .zip file if someone prefers it)
 
Capo 3 

Tempo ~ 135 
     H        E  E  E  E     E  E  E  E  E  E  E  E   
E||-----------------------|--0-----0-----------------|
B||--------------------1--|-----------3-----3--1-----|
G||-----------------2-----|--------------------------|
D||--------------2--------|-----2-----2-----2-----2--|
A||-----------------------|--0-----------0-----------|
E||-----------------------|--------------------------|


  E  E  E  E  E  E  E  E     E  E  E  E  E  E  E  E   
--------------------------|--1-----1--3-----1--0-----|
--0-----3-----------0--3--|-----------------------3--|
-----1-----1-----1-----1--|-----1-----1-----1--------|
--------0-----------0-----|--------0-----------0-----|
--2-----------2-----------|--2-----------2-----------|
--------------------------|--------------------------|


  E  E  E  E  E  E  E  E     E  E  E  E  E  E  E  E     E  E  Q    E  E  E  E   
--------0-----------------|--5--------5--4--------4--|--3-----1-------1--0-----|
--1--------------------1--|--------------------------|----------------------3--|
--------------------2-----|--------2-----------2-----|-----2-------------------|
-----2-----2-----2-----2--|-----2-----2-----2-----2--|--0-----3----------------|
--0-----------0-----------|--0-----------0-----------|-------------------------|
--------------------------|--------------------------|-------------------------|


  E  E  Q    E  E  E  E     E  E  Q.     E  E  E     E  E  E  E  E  E  E  E   
--0----------------------|------------------------|--0-----0-----------------|
--------3----1--0--------|---------------------1--|-----------3-----3--1--1--|
-------------------1--2--|--L---------------2-----|--------------------------|
-----2-------------------|---------------2--------|-----2-----2-----2-----2--|
----------------------0--|--L---------------------|--0-----------0-----------|
--0-----1----2-----------|--------0---------------|--------------------------|


  E  E  E  E  E  E  E  E     E  E  E  E  E  E  E  E   
--------------------------|--------------------------|
--0-----3--------------0--|--3-----3--1-----1--0-----|
-----1-----1--------1-----|-----1-----1-----1-----1--|
--------0--------2--------|--------0-----------0-----|
--2-----------2-----------|--2-----------2-----------|
--------------------------|--------------------------|


  E  E  E  E  E  E  E  E     E  E  E  E  E  E  E  E   
--------------------------|--0-----0-----------------|
--------1--------------1--|-----------3-----3--1--1--|
--2-----------------2-----|--------------------------|
-----2-----2-----2-----2--|-----2-----2-----2-----2--|
--0-----------0-----------|--0-----------0-----------|
--------------------------|--------------------------|


  E  E  E  E  E  E  E  E     E  E  E  E  E  E  E  E   
--------------------------|--------0-----------------|
--0-----3--------------0--|--3--------3--1--0-----1--|
-----1-----1--------1-----|-----1-----1-----------1--|
--------0--------2--------|--------0-----------------|
--2-----------2-----------|--2-----------2-----2-----|
--------------------------|--------------------------|


  E  E  E  E  E  E  E  E     E  E  E  E  E  E  E  E   
--------------------------|--0-----0-----------------|
-----------------------1--|-----------3-----3--1--1--|
--2--------1--2-----2-----|--------------------------|
-----1--2--------2--------|-----2-----2-----2-----2--|
--------------------------|--0-----------0-----------|
--------------------------|--------------------------|


  E  E  E  E  E  E  E  E     E  E  E  E  E  E  E  E   
--------------------------|--------------------------|
--0-----3--------------0--|--3-----3--1-----1--0-----|
-----1-----1--------1-----|-----1-----1-----1-----1--|
--------0--------2--------|--------0-----------0-----|
--2-----------2-----------|--2-----------2-----------|
--------------------------|--------------------------|


  E  E  E  E  E  E  E  E     E  E  E  E  E  E  E  E   
--------------------------|--0-----0-----------0--0--|
--------1--------------1--|-----------3-----3--------|
--2-----------------2-----|--------------------------|
-----2-----2-----2-----2--|-----2-----2-----2-----2--|
--0-----------0-----------|--0-----------0-----------|
--------------------------|--------------------------|


  E  E  E  E  E  E  E  E     E  E  E  E  E  E  E  E   
--3-----1--------1--0-----|--0-----------------------|
-----------------------3--|--------3--3--1--0--------|
-----2-----2-----2-----2--|--------------------1--2--|
--0-----------0-----------|-----2--------------------|
--------------------------|-----------------------0--|
--------------------------|--0-----1-----2-----------|


  E  E  E  E  E  E  E  E     E  E  E  E  E  E  E  E   
--------------------------|--1-----------------3--5--|
--------------------------|--------3-----------------|
--L-----------------2-----|-----2-----2-----2--------|
--------------------------|--0-----------0-----------|
--0--0--0--0--0--0--0--0--|--------------------------|
--------------------------|--------------------------|


  E  E  E  E  E  E  E  E     E  E  E  E  E  E  E  E   
--L-----5-----3--1--------|--0--------------------0--|
-----------------------3--|-----------3--1--3--------|
-----2-----2--------2-----|--------2-----------2-----|
--0-----------0-----------|-----2-----2-----2-----2--|
--------------------------|--0-----------0-----------|
--------------------------|--------------------------|


  E  E  E  E  E  E  E  E     E  E  E  E  E  E  E  E   
--------------------------|--1-----------------3--5--|
--------------------------|--------3-----------------|
--------2-----------2-----|-----2-----2-----2--------|
-----2-----2-----2-----2--|--0-----------0-----------|
--0-----------0-----------|--------------------------|
--------------------------|--------------------------|


              |----3----|                                
  E  E  E  E  Q    Q    Q       E  E  E  E  E  E  E  E   
--L--------5--5----3----1----|--0-----------------------|
--------6--------------------|--------------1--0--------|
-----5-----------------------|-----------------------0--|
--3-----------3--------------|-----1--2-----------------|
-----------------------------|--------------------------|
-----------------------------|-----------------------3--|


  E  E  E  Q    E  E  E     E  E  E  E  E  E  E  E     E  E  E  E  E  E  E  E   
--L----------------------|--0-----0-----------------|--------------------------|
----------------------1--|-----------3-----3--1--1--|--0-----3--------------0--|
-------------------2-----|--------------------------|-----1-----1--------1-----|
--------3--2----2--------|-----2-----2-----2-----2--|--------0--------2--------|
-----2-------------------|--0-----------0-----------|--2-----------2-----------|
--4----------------------|--------------------------|--------------------------|


  E  E  E  E  E  E  E  E     E  E  E  E  E  E  E  E   
--------0-----------------|--------------------------|
--3--------3--1--0--------|--------1--------------1--|
-----1-----1-----------2--|--L-----------------2-----|
--------0-----------0-----|-----2-----2-----2--------|
--2-----------2-----------|--0-----------0-----------|
--------------------------|--------------------------|


  E  E  E  E  E  E  E  E     E  E  E  E  E  E  E  E   
--0-----0-----------0--0--|--3-----1--------1--0-----|
-----------3-----3--------|-----------------------3--|
--------------------------|-----2-----2-----2-----2--|
-----2-----2-----2-----2--|--0-----------0-----------|
--0-----------0-----------|--------------------------|
--------------------------|--------------------------|


  E  E  E  E  E  E  E  E     E  E  E  E  Q    Q       E  E  Q    E  E  Q     
--0-----------------------|------------------------|--1----------0----------|
--------3--3--1--0--------|------------------------|--------3----------1----|
--------------------1--2--|--L--2--2--2--2---------|-----2------------------|
-----2--------------------|------------------------|--0-------------2-------|
-----------------------0--|--L--0--0--0--0---------|-------------3----------|
--0-----1-----2-----------|------------------------|------------------------|


  E  E  Q    E  E  Q       E  E  H        E  E     E  E  E  E  E  E  E  E   
------------------------|-----------------------|--------1--0--------------|
--3----------1----------|-----------------1--0--|-----------------------1--|
--------4----------2----|-----------------------|--1--2--------------2-----|
-----2----------2-------|--1--2-----------------|-----------------2--------|
--2----------0----------|-----------------------|--------------------------|
------------------------|-----------------------|--------------0-----------|


  E  E  E  E  E  E  E  E     E  E  E  E  E  E  E  E   
--0-----0-----------------|--------------------------|
-----------3-----3--1--1--|--0-----3--------------0--|
--------------------------|-----1-----1--------1-----|
-----2-----2-----2-----2--|--------0--------2--------|
--0-----------0-----------|--2-----------2-----------|
--------------------------|--------------------------|


  E  E  E  E  E  E  E  E     E  E  E  E  E  E  E  E   
--------------------------|--------------------------|
--3-----3--1-----1--0-----|--------1--------------1--|
-----1-----1-----1-----1--|--2-----------------2-----|
--------0-----------0-----|-----2-----2-----2-----2--|
--2-----------2-----------|--0-----------0-----------|
--------------------------|--------------------------|


  E  E  E  E  E  E  E  E     E  E  E  E  E  E  E  E   
--0-----0-----------0--0--|--3-----1--------1--0-----|
-----------3-----3--------|-----------------------3--|
--------------------------|-----2-----2-----2-----2--|
-----2-----2-----2-----2--|--0-----------0-----------|
--0-----------0-----------|--------------------------|
--------------------------|--------------------------|


  E  E  E  E  E  E  E  E     E  E  E  E  E  E  E  E   
--0-----------------------|--------------------------|
--------3--3--1--0--------|--------------------------|
--------------------1--2--|--L-----------------2-----|
-----2--------------------|--------------------------|
-----------------------0--|--0--0--0--0--0--0--0--0--|
--0-----1-----2-----------|--------------------------|


  E  E  E  E  E  E  E  E     E  E  E  E  E  E  E  E   
--1-----------------3--5--|--L-----5-----3--1--------|
--------3-----------------|-----------------------3--|
-----2-----2-----2--------|-----2-----2--------2-----|
--0-----------0-----------|--0-----------0-----------|
--------------------------|--------------------------|
--------------------------|--------------------------|


  E  E  E  E  E  E  E  E     E  E  E  E  E  E  E  E   
--0--------------------0--|--------------------------|
-----------3--1--3--------|--------------------------|
--------2-----------2-----|--------2-----------2-----|
-----2-----2-----2-----2--|-----2-----2-----2-----2--|
--0-----------0-----------|--0-----------0-----------|
--------------------------|--------------------------|


                                         |----3----|     
  E  E  E  E  E  E  E  E     E  E  E  E  Q    Q    Q     
--1-----------------3--5--|--L--------5--5----3----1----|
--------3-----------------|--------6--------------------|
-----2-----2-----2--------|-----5-----------------------|
--0-----------0-----------|--3-----------3--------------|
--------------------------|-----------------------------|
--------------------------|-----------------------------|


  E  E  E  E  E  E  E  E     E  E  E  Q    E  E  E     E  E  E  E  E  E  E  E   
--0-----------------------|--L----------------------|--0-----0-----------------|
--------------1--0--------|----------------------1--|-----------3-----3--1--1--|
-----------------------0--|-------------------2-----|--------------------------|
-----1--2-----------------|--------3--2----2--------|-----2-----2-----2-----2--|
--------------------------|-----2-------------------|--0-----------0-----------|
-----------------------3--|--4----------------------|--------------------------|


  E  E  E  E  E  E  E  E     E  E  E  E  E  E  E  E   
--------------------------|--------0-----------------|
--0-----3--------------0--|--3--------3--1--0--------|
-----1-----1--------1-----|-----1-----1-----------2--|
--------0--------2--------|--------0-----------0-----|
--2-----------2-----------|--2-----------2-----------|
--------------------------|--------------------------|


  E  E  E  E  E  E  E  E     E  E  E  E  E  E  E  E   
--------------------------|--0-----0-----------0--0--|
--------1--------------1--|-----------3-----3--------|
--L-----------------2-----|--------------------------|
-----2-----2-----2--------|-----2-----2-----2-----2--|
--0-----------0-----------|--0-----------0-----------|
--------------------------|--------------------------|


  E  E  E  E  E  E  E  E     E  E  Q    E  E  E  E     E  E  E  E  E  E  E  E   
--3-----1--------1--0-----|--0----------------------|--------------------------|
-----------------------3--|--------3----1--0--------|-----------------------1--|
-----2-----2-----2-----2--|-------------------1--2--|--2-----------------2-----|
--0-----------0-----------|-----2-------------------|-----------------2--------|
--------------------------|----------------------0--|-----0--0--0--0-----0-----|
--------------------------|--0-----1----2-----------|--------------------------|


  E  E  E  E  E  E  E  E     E  E  E  E  E  E  E  E   
--0-----0-----------------|--------------------------|
-----------3-----3--1-----|--0-----3-----------0--3--|
--------------------------|-----1-----1-----1-----1--|
-----2-----2-----2-----2--|--------0-----------0-----|
--0-----------0-----------|--2-----------2-----------|
--------------------------|--------------------------|


  E  E  E  E  E  E  E  E     E  E  E  E  E  E  E  E   
--1-----1--3-----1--0-----|--------0-----------------|
-----------------------3--|--1--------------------1--|
-----1-----1-----1--------|--------------------2-----|
--------0-----------0-----|-----2-----2-----2-----2--|
--2-----------2-----------|--0-----------0-----------|
--------------------------|--------------------------|


  E  E  E  E  E  E  E  E     E  E  Q    E  E  E  E     E  E  Q    E  E  E  E   
--5--------5--4--------4--|--3-----1-------1--0-----|--0----------------------|
--------------------------|----------------------3--|--------3----1--0--------|
--------2-----------2-----|-----2-------------------|-------------------1--2--|
-----2-----2-----2-----2--|--0-----3----------------|-----2-------------------|
--0-----------0-----------|-------------------------|----------------------0--|
--------------------------|-------------------------|--0-----1----2-----------|


                             ^                                          
  E  E  E  E  E  E  E  E     H.           E  E     Q    Q    E  Q.      
--------------------------|--1------------3--5--|--L----5----3--1------|
--------------------------|--3------------------|--L-------------------|
--L-----------------2-----|--2------------------|--L-------------------|
--------------------------|--0------------------|--L-------------------|
--L--0--0--0--0--0--0--0--|---------------------|----------------------|
--------------------------|---------------------|----------------------|


  ^                                               ^                   
  Q.     E  E  Q    E     H        E  E  E  E     H.           E  E   
--0-----------------0--|--L--------------------|--1------------3--5--|
--1------3--1--3-------|--L--------------------|--3------------------|
--2--------------------|--L--------------2-----|--2------------------|
--2--------------------|--L-----------2-----2--|--0------------------|
--0--------------------|--L--------0-----------|---------------------|
-----------------------|-----------------------|---------------------|


  ^                                                                             
           |----3----|                                                          
  H        Q    Q    Q       E  E  E  E  E  E  E  E     E  E  E  Q    E  E  E   
--L--------5----3----1----|--0-----------------------|--L----------------------|
--6-----------------------|--------------1--0--------|----------------------1--|
--5-----------------------|-----------------------0--|-------------------2-----|
--3--------3--------------|-----1--2-----------------|--------3--2----2--------|
--------------------------|--------------------------|-----2-------------------|
--------------------------|-----------------------3--|--4----------------------|


  E  E  E  E  E  E  E  E     E  E  E  E  E  E  E  E   
--0-----0-----------------|--------------------------|
-----------3-----3--1--1--|--0-----3--------------0--|
--------------------------|-----1-----1--------1-----|
-----2-----2-----2-----2--|--------0--------2--------|
--0-----------0-----------|--2-----------2-----------|
--------------------------|--------------------------|


  E  E  E  E  E  E  E  E     E  E  E  E  E  E  E  E   
--------0-----------------|--------------------------|
--3--------3--1--0--------|--------1--------------1--|
-----1-----1-----------2--|--L-----------------2-----|
--------0-----------0-----|-----2-----2-----2--------|
--2-----------2-----------|--0-----------0-----------|
--------------------------|--------------------------|


  E  E  E  E  E  E  E  E     E  E  E  E  E  E  E  E     E  E  Q    E  E  E  E   
--0-----0-----------0--0--|--3-----1--------1--0-----|--0----------------------|
-----------3-----3--------|-----------------------3--|--------3----1--0--------|
--------------------------|-----2-----2-----2-----2--|-------------------1--2--|
-----2-----2-----2-----2--|--0-----------0-----------|-----2-------------------|
--0-----------0-----------|--------------------------|----------------------0--|
--------------------------|--------------------------|--0-----1----2-----------|


  E  E  E  E  Q    E  E     E  E  Q    E  E  E  E     E  E  E  E  E  E  E  E   
-------------------0-----|--0----------------------|-----------------3--1--0--|
----------------------3--|--------3----1--0--------|--------------------------|
--L----------------------|-------------------1--2--|--L-----------------------|
-------------------------|-----2-------------------|--------------------------|
--L--0--0--0--0----0-----|----------------------0--|--L--0--0--0--0-----0-----|
-------------------------|--0-----1----2-----------|--------------------------|


  E  E  E  E  E  E  E  E     E  E  H        S S S S    W                  
--0-----1-----3--4-----5--|--L----------------------|-------------------||
--------------------------|--------0----------------|-------------------||
--------------------------|--------2----------------|-------------------||
-----2-----3--------6-----|--------2--------2-0-----|-------------------||
-----------------------0--|--L-----0------------3-2-|--0----------------||
--0-----1-----2--4--------|-------------------------|-------------------||




Duration Legend
---------------
W - whole
H - half
Q - quarter
E - 8th
S - 16th
T - 32nd
X - 64th
. - note dotted
|-n-|  - n-tuplets


Tablature Legend
----------------
L - tied note
x - dead note
g - grace note
(n) - ghost note
> - accentuded note
NH - natural harmonic
AH - artificial harmonic
TH - tapped harmonic
SH - semi harmonic
PH - pitch harmonic
h - hammer on
p - pull off
b - bend
s - slide
/ -  slide into from below or out of upwards
\ -  slide into from above or out of downwards
~ - vibrato
W - wide vibrato
tr - trill
TP - tremolo picking
T - tapping
S - slap
P - pop
< - fade in
^ - brush up
v - brush down
Login or Register to remove this ad.

9 comments on Moonlight Densetsu

catchy

5

catchy

Will record this in the

5

Will record this in the future.

According

According http://ja.chordwiki.org/wiki.cgi?c=view&t=%E3%83%A0%E3%83%BC%E3%83%B3%E3... the chord E7 u used everytime in the versus is wrong, these "official" chords use a E7/B , so a Bass note with "B" instead your "E".

I imagine u can rewrite an E7/B version from your work :
for example

                 Am          Am                         E7/B                         E7/B                         Am                       
     H        E  E  E  E     E  E  E  E  E  E  E  E     E    E  E  E  E  E  E  E     E    E  E  E  E  E  E  E     E  E  E  E  E  E  E  E   
E||-----------------------|--0--L--0-----------------|----------------------------|--1-------1--3-----1--0-----|--------0-----------------|
B||--------------------1--|-----------3--L--3--1-----|--0----L--3-----------0--3--|-------------------------3--|--1--------------------1--|
G||-----------------2-----|--------------------------|-------1-----1-----1--------|----------1-----------1-----|--------------------2-----|
D||--------------2--------|-----2-----2-----2-----2--|----------0-----------0-----|-------0-----0-----0-----0--|-----2-----2-----2-----2--|
A||-----------------------|--0-----------0-----------|--2-------------2-----------|--2-------------2-----------|--0-----------0-----------|
E||-----------------------|--------------------------|----------------------------|----------------------------|--------------------------|
I liked your tab, it s very easy & fun to play but if the chords aren't not accurate I thought u have to know this information.
Now u can choose to fix it if u want do a perfect match with the original tune, or not.

Yeah, the bass there is B (if

Yeah, the bass there is B (if you have a capo on 3, which gives you a B sounding as D. The song sounds in Cm, not Am, it's just written this way because of the capo).

I also often face the pb to

I also often face the pb to distiguish slash chords and "normal" chords

if I understood well "slash chords" comes from an inversion between notes in a chord then their numbers limited by number of notes inside a chord.

So I think it's possible to dress a list of limited slash chords :

example :

C has 3 notes (c g e) -> only 2 slash chords are possible : C/E C/G

C7 has 4 notes ( c g e a# ) -> only 3 slash chords are possible : C7/E C7/G C7/A#

I mean I begin to think it can't exist C/B, C/A or C/G#, can't it ? or it's more cvomplex than a simple inversion QQ (??)

EDIT : just found the answer : "There are basically two types of slash chords: one is an inversion of the chord itself, this makes the bass note (notated on the right of the slash) the 3rd, 5th or 7th of the chord. In the other type of slash chord, the bass note functions as the actual root of the chord."
Here's a great course about slash chords , let's print it ^^ :
http://www.myguitarworkshop.com/guitar_lessons/chords/guitar_slash_chord...
(2 pages)

Yeah, that's right. It just

Yeah, that's right. It just means "Play this chord over this note".

I always found slash chords

I always found slash chords easy to play (or become easy after a transposing esp if it comes from piano score, Songpress is very helpfull to do this kind of job, http://web.skeed.it/index.php?q=songpress.html )

Now, to translate good from a song/tune, for ex : u hear well a C chord but something sounding "strange" not really like a pure C chord well.. since there is no logic no rules just open ears in "bass detection mode" ^^ and try the 11 possibilities with your guitar :

C/C# , C/D , C/D# , C/E , C/F , C/F# , C/G, C/G#, C/A , C/A# , C/B

and choose the best comparing with the song.

Another way I though is translate all the bass notes before chords, can take some time, but it must work too :)

... except some song totally crazy like this one http://www.youtube.com/watch?v=syvvDkC3kPo where it seems they used 1 millions of bass notes ^^

Hmm. I hadn't noticed that

Hmm. I hadn't noticed that myself. You are right. I'll rewrite it at some point.

Yay Good new u are ok to

Yay Good new u are ok to improve a lot more the harmony of your nice tab, me & my guitar are in waiting ... ^^

My ears too are often unable to distinguish basic chords and slash chords (like E7 and E7/B). It's why I use the web when I can, find the absolute f right chords by itsel is tricky -_-' A day we will be able, with natural training... or in using of a ugly sofware like "earmaster 6" but i'm not still ready for such torture C:

generally for popular jap singing tune /singer u cand find the free stuffs available from (oh ofc u must use always japanese characters) :

http://ja.chordwiki.org (since 911tabs doesn't really work for japanese music)

About non-singing tune chords must be grabbed from piano score, sometimes it s included inside the sheet music, tools are google or google image or also ask score trought http://www.pianofiles.com/ community.

More & more, I'm thinking : chords are really important to build an guitar tab ("by ear" arrangement).