SaGa2 Battle Theme (SaGa2) Guitar Tab

Submitted: Jun 18, 2009 by CpxAzn (Last updated: Jun 18, 2009)

0
Download | Listen
Game: SaGa2
Composer(s): Nobuo Uematsu, Kenji Ito
Style: Transcription

Click here for a video example.

AutoScroll: Slow | Medium | Fast

Tabbed this just for fun.
The person in the youtube video is not me.

                                 Battle Theme                                   


                                                                Tabbed by CpxAzn
Guitar



       E  E  E  E  E  E  E  E      E  E  E  E  E  S  S S  S  S S  
E||----------------------------|------------------9-10-9---------|
B||----------------------------|-------------------------12-10-9-|
G||*------------9--8-----------|---------9--8--------------------|
D||*--11-----7--------9-----9--|--11-----------------------------|
A||-------9--------------------|------9--------------------------|
E||----------------------------|---------------------------------|


   E  E  E  E  E  E  E  E      E  E  E  E  E  S  S  S S  S S  
---------------------------|---------------------------------|
---------------------------|---------------------------------|
------------9--8-----------|---------9--8------------------9-|
--11-----7--------9-----9--|--11----------------------9-11---|
------9--------------------|------9-----------9-11-12--------|
---------------------------|---------------------------------|


   Q.     S  S  Q.      S  S     Q.      S  S  E.   S  E.  S  
-----------------------------|-------------------------------|
-----------------------------|-------------------------------|
--11------9-11-13------11-13-|--14------13-11-13----L--------|
-----------------------------|------------------------14---L-|
-----------------------------|-------------------------------|
-----------------------------|-------------------------------|


   E   E   E   E   Q     Q        E   E   E   E   Q    Q     
------------------------------|-----------------------------|
------------------------14----|--12--14--12--10-------------|
--14--13--11--13--14----------|------------------13----9----|
------------------------------|-----------------------------|
------------------------------|-----------------------------|
------------------------------|-----------------------------|


   E   E   H.                S  S  S  S  S  S  S  S  S  S  S  S  S  S  S  S  
-------------------------|--------------------------------------------------|
-------------------------|--14-15-14----------------------------------14-15-|
--14--13--11~------------|-----------16-14-13----------------13-14-16-------|
-------------------------|--------------------16-14-12-14-16----------------|
-------------------------|--------------------------------------------------|
-------------------------|--------------------------------------------------|


   E   E   E   E   Q     Q        Q     E   E   Q     Q     
------------------------------|----------------------14----|
------------------------14----|--13----13--14--16----------|
--14--13--11--13--14----------|----------------------------|
------------------------------|----------------------------|
------------------------------|----------------------------|
------------------------------|----------------------------|


   E   E   H.                S  S  S  S  S  S  S  S  S  S  S  S  S  S  S  S  
-------------------------|--------------------------------------------------|
--17--16--17~------------|--------------------------------------------12-14-|
-------------------------|--13-14-13-11-13-14-13-11----------11-13-14-------|
-------------------------|--------------------------11-12-14----------------|
-------------------------|--------------------------------------------------|
-------------------------|--------------------------------------------------|


   Q     E   E   Q     Q        E   E   Q     E   E   E   E   
--14----14--15--14----12----|----------------------------14--|
----------------------------|--15--14--15----12--14--15------|
----------------------------|--------------------------------|
----------------------------|--------------------------------|
----------------------------|--------------------------------|
----------------------------|--------------------------------|


   Q     E   E   Q     Q        E   E   Q     E   E   E   E   
--12----12--14--12----------|----------------------------12--|
----------------------15----|--14--12--14----10--12--14------|
----------------------------|--------------------------------|
----------------------------|--------------------------------|
----------------------------|--------------------------------|
----------------------------|--------------------------------|


   Q     E   E   Q     Q       Q     Q     Q    Q     
--10----10------------------|------------------------|
------------14--12----10----|--9----10----12----9----|
----------------------------|------------------------|
----------------------------|------------------------|
----------------------------|------------------------|
----------------------------|------------------------|


  S  S  S  S S. T S  S  S  S S. T S  S  S  S    W                  
--9-10-12-10-9----9-10-12-10-9----9-10-12-10-|--9~----------------|
---------------------------------------------|--------------------|
---------------------------------------------|--------------------|
---------------------------------------------|--------------------|
---------------------------------------------|--------------------|
---------------------------------------------|--------------------|


   S  S  S  S  S  S  S  S  S  S  S  S  S  S  S  S  
--14-15-14-12----------------------------------14-|
--------------15-14-12----------12----12-14-15----|
-----------------------14-13-14----14-------------|
--------------------------------------------------|
--------------------------------------------------|
--------------------------------------------------|


   S  S  S  S  S  S  S  S S  S  S S  S  S  S  S     E   E   E   E   Q     Q     
--12-14-12-10----10---------------9-------------|------------------------12----|
--------------14----14-12-9-10-12---10-12-14-10-|--12--14--15--12--14----------|
------------------------------------------------|------------------------------|
------------------------------------------------|------------------------------|
------------------------------------------------|------------------------------|
------------------------------------------------|------------------------------|


   Q.      S  S  Q     Q        S  S  S  S  S  S  S  S  S  S  S  S  S  S  S  S  
--14------16-14-13----------|--14-15-14-12----------------------------------14-|
----------------------14----|--------------15-14-12----------12----12-14-15----|
----------------------------|-----------------------14-13-14----14-------------|
----------------------------|--------------------------------------------------|
----------------------------|--------------------------------------------------|
----------------------------|--------------------------------------------------|


   S  S  S  S  S  S  S  S S  S  S S  S  S  S  S  
--12-14-12-10----10---------------9-------------|
--------------14----14-12-9-10-12---10-12-14-10-|
------------------------------------------------|
------------------------------------------------|
------------------------------------------------|
------------------------------------------------|


   S  S  S  S  S  S  S  S  S  S  S  S  S  S  T  T  T  T 99x
-----------------------------------------------17-19-21--||
--12-14-15-12-14-15-17-14-15-17-19-15-17-19-21-----------||
--------------------------------------------------------*||
--------------------------------------------------------*||
---------------------------------------------------------||
---------------------------------------------------------||




Duration Legend
---------------
W - whole
H - half
Q - quarter
E - 8th
S - 16th
T - 32nd
X - 64th
. - note dotted
|-n-|  - n-tuplets


Tablature Legend
----------------
L - tied note
x - dead note
g - grace note
(n) - ghost note
> - accentuded note
NH - natural harmonic
AH - artificial harmonic
TH - tapped harmonic
SH - semi harmonic
PH - pitch harmonic
h - hammer on
p - pull off
b - bend
br - bendRelease
pb - preBend
pbr - preBendRelease
brb - bendReleaseBend
\n/ - tremolo bar dip
\n - tremolo bar dive
-/n - tremolo bar Release up
/n\ - tremolo bar inverted dip
/n - tremolo bar return
-\n - tremolo bar Release down
S - shift slide
s - legato slide
/ -  slide into from below or out of upwards
\ -  slide into from above or out of downwards
~ - vibrato
W - wide vibrato
tr - trill
TP - tremolo picking
T - tapping
S - slap
P - pop
< - fade in
^ - brush up
v - brush down
Login or Register to remove this ad.

1 comment on SaGa2 Battle Theme

This game is called Final

This game is called Final Fantasy Legend 2 in English, that's what the other tabs are under. And "SaGa 2: Hihou Densetsu" is the actual Japanese title.