Ads

Travelling Regions (SaGa Frontier) Guitar Tab

Submitted: Apr 06, 2020 by plapoa (Last updated: Apr 13, 2020)

4
Average: 4 (1 vote)
Download | Listen
Game: SaGa Frontier
Composer(s): Kenji Ito
Style: Arrangement

AutoScroll: Slow | Medium | Fast
Title: Travelling Regions
Game: Saga Frontier 
Composer: Kenji Ito
Tabber: plapoa

here is the original: https://www.youtube.com/watch?v=9o4h4OqSo14 

E|-7--------------7----|-8--------------8----|-10-------------10---|-12---10---8---------|
B|---------------------|-----------6---------|-----------8---------|----------------10---|
G|-----------9---------|------7--------------|------9--------------|---------------------|
D|------10-------------|---------------------|---------------------|---------------------|
A|---------------------|-5-------------------|-7-------------------|-8-------------------|
E|-8-------------------|---------------------|---------------------|---------------------|


E|-7--------------7----|-8--------------8----|-10-------------10---|-11---10---8---------|
B|---------------------|-----------6---------|-----------8---------|----------------9----|
G|-----------9---------|------7--------------|------9--------------|---------------------|
D|------10-------------|---------------------|---------------------|---------------------|
A|---------------------|-5-------------------|-7-------------------|-8-------------------|
E|-8-------------------|---------------------|---------------------|---------------------|


E|-7--------------7----|-5--------------5----|-10-----|-12----10----|-7--------------7----|
B|---------------------|---------------------|--------|-------------|---------------------|
G|-----------7---------|-----------7---------|--------|-------------|-----------9---------|
D|------9--------------|------8--------------|--------|-------------|------10-------------|
A|-7-------------------|---------------------|--------|-------------|---------------------|
E|---------------------|-6-------------------|--------|-------------|-8-------------------|


E|-8--------------8----|-10-------------10---|-12---10---8---------|-7--------------7----|
B|-----------6---------|-----------8---------|----------------10---|---------------------|
G|------7--------------|------9--------------|---------------------|-----------9---------|
D|---------------------|---------------------|---------------------|------10-------------|
A|-5-------------------|-7-------------------|-8-------------------|---------------------|
E|---------------------|---------------------|---------------------|-8-------------------|


E|-8--------------8----|-10-------------10---|-11---10---8---------|-7--------------7----|
B|-----------6---------|-----------8---------|----------------9----|---------------------|
G|------7--------------|------9--------------|---------------------|-----------7---------|
D|---------------------|---------------------|---------------------|------9--------------|
A|-5-------------------|-7-------------------|-8-------------------|-7-------------------|
E|---------------------|---------------------|---------------------|---------------------|


E|-5--------------5----|-10-----|-12----10----|-7--------------7----|-8--------------8----|
B|---------------------|--------|-------------|---------------------|-----------6---------|
G|-----------7---------|--------|-------------|-----------9---------|------7--------------|
D|------8--------------|--------|-------------|------10-------------|---------------------|
A|---------------------|--------|-------------|---------------------|-5-------------------|
E|-6-------------------|--------|-------------|-8-------------------|---------------------|


E|-10-------------10---|-12---10---8---------|--------|
B|-----------8---------|----------------10---|-12-----|
G|------9--------------|---------------------|--------|
D|---------------------|---------------------|--------|
A|-7-------------------|-8-------------------|--------|
E|---------------------|---------------------|-8------|
Login or Register to remove this ad.