Battle 5 (SaGa Frontier) Bass Tab

Submitted: Jul 08, 2009 by auriplane (Last updated: Aug 29, 2012)

0
Download | Listen
Game: SaGa Frontier
Composer(s): Kenji Ito
Style: Transcription

AutoScroll: Slow | Medium | Fast
                       Saga Frontier - Battle 5 BASS TAB
                               Song by Kenji Ito

                    Tabbed by Auriplane ([email protected])



Four-string bass, standard tuning.




        Intro


   (6/8 time)
G |------------|------------|------------|------------|------------|------------|
D |--------2---|------------|--------2---|------------|------------|------5-45--|
A |------2---4-|------2-5-4-|------2---4-|------------|------------|----------5-|
E |2--02-------|2--02-------|2--02-------|2---3---5---|------------|-----------3|


G |------------|------------|------------|------------|
D |--------2---|------------|--------2---|------------|
A |------2---4-|------2-5-4-|------2---4-|------------|
E |2--02-------|2--02-------|2--02-------|2---3---5---|


   (4/4 time)
G |----------------|----------------|----------------|----------------|
D |----------------|----------------|----------------|----------------|
A |----------------|----------------|5--4----5--4----|------------10s2|
E |2---------------|-------------7s2|------5-------5-|3---------------|

        Part A

G |----------------|----------------|----------------|----------------|
D |----------------|----------------|----------------|----------------|
A |----------------|--------6--5--4-|----------------|--------6--5--4-|
E |2-2-2-2-1-1-1-1-|0-0-0-0---------|2-2-2-2-1-1-1-1-|0-0-0-0---------|


G |----------------|----------------|----------------|----------------|----------------|----------------|
D |----------------|----------------|----------------|----------------|----------------|----------------|
A |----------------|--------7--6--5-|----------------|--------7--6--5-|----------------|--------5-------|
E |3-3-3-3-2-2-2-2-|1-1-1-1---------|3-3-3-3-2-2-2-2-|1-1-1-1---------|4---------------|--8-6-5---------|

        Part B

G |----------------|----------------|----------------|----------------|----------------|----------------|
D |----------------|----------------|----------------|--------------0-|----------------|--------0-------|
A |----------------|--------------0-|1-1-1-1-1-1-1-1-|1-1-1-1-2--3----|3-3-3-3-2-2-2-2-|1-1-1-1----3--0-|
E |3-3-3-3-3-3-3-3-|3-3-3-3-1--3----|----------------|----------------|----------------|----------------|


G |----------------|----------------|----------------|----------------|
D |----------------|----------------|----------------|----------------|
A |----------------|--------7--6--5-|----------------|--------7--6--5-|
E |3-3-3-3-2-2-2-2-|1-1-1-1---------|3-3-3-3-2-2-2-2-|1-1-1-1---------|


G |----------------|----------------|----------------|----------------|
D |----------------|----------------|----------------|--------------0-|
A |----------------|--------------0-|1-1-1-1-1-1-1-1-|1-1-1-1-2--3----|
E |3-3-3-3-3-3-3-3-|3-3-3-3-1--3----|----------------|----------------|


G |----------------|----------------|----------------|----------------|
D |----------------|----------------|----------------|----------------|
A |3-3-3-3-2-2-2-2-|1-1-1-1-0-0-0-0-|5-----5-6-----6-|5-------3-------|
E |----------------|----------------|---5-------6----|-----------6--5-|

        Part C

G |----------------|----------------|----------------|----------------|
D |----------------|----------------|----------------|--------5-------|
A |3-3-3-3-3-------|--------------0-|1-1-1-1---------|-----------5----|
E |----------6-5-3-|1-1-1-1-1-1-3---|--------4-4-4-4-|3-3-3-3-------3-|


G |----------------|----------------|----------------|----------------|
D |----------------|----------------|----------------|----------------|
A |3-3-3-3---------|--------5-3-----|----------------|--------3-------|
E |--------6-6-6-6-|5-5-5-5-----6-5-|3-3-3-3-5-5-5-5-|6-6-6-6----6--5-|


G |----------------|----------------|----------------|----------------|
D |----------------|----2-2-4-4-0-0-|1---------------|2---------------|
A |3-3-3-3-3-----3-|5-5-------------|----------------|----------------|
E |----------5-6---|----------------|----------------|----------------|


G |----------------|----------------|----------------|
D |----------------|----------------|----------------|
A |3-3-3-3-5-5-5-5-|--------3-3-3-3-|5-------5-3-----|
E |----------------|3-3-5-6---------|------------6-5-|


G |----------------|----------------|----------------|----------------|
D |----------------|----------------|----------------|----------------|
A |----------------|--------7--6--5-|----------------|--------7--6--5-|
E |3-3-3-3-2-2-2-2-|1-1-1-1---------|3-3-3-3-2-2-2-2-|1-1-1-1---------|


    Repeat back to Part B.

Login or Register to remove this ad.