Ads

Thema (SaGa Frontier 2) Guitar Tab

Submitted: Oct 25, 2009 by TrangOul (Last updated: Oct 26, 2009)

5
Average: 5 (3 votes)
Download | Listen
Game: SaGa Frontier 2
Composer(s): Masashi Hamauzu
Style: Arrangement, Fingerstyle, Natural harmonics

AutoScroll: Slow | Medium | Fast
'Thema'
from 'SaGa Frontier 2'
originally composed by Masashi Hamauzu
arranged by Marcus Kasperski

Andante | Standard Tuning


     Q.     E       E  E  E  E     E  E  E  E     E  E  E  E     E  E  E  E   
E||------------||---2-----0--2--|--------------|-----0--------|--------------|
B||---------0--||---------------|--2--3--------|--0-----2--0--|--------------|
G||------------||*--------------|--------2-----|--------------|--2-----------|
D||------------||*-----0--4-----|-----0--4-----|--------------|--------4-----|
A||------------||---2-----------|--0--------0--|--------------|-----0--------|
E||------------||---------------|--------------|--3-----0-----|--2--------2--|


  E  E  E  E     E  E  E  E     E  E  E  E     E  E  E  E     E  E  E  E   
--------------|--------------|--------------|--------------|--2-----0--2--|
-----------0--|--2-----3--0--|--------0-----|--2--------0--|--------------|
--0-----0--0--|--------------|--3-----------|--------------|--------------|
-----4--------|--------------|--4-----------|--4--2--------|-----0--4-----|
--------2-----|--------1-----|--------2-----|--------4-----|--2-----------|
--0--2--------|--2--4--------|-----2-----2--|--------------|--------------|


  E  E  E  E     E  E  E  E     E  E  E  E     E  E  E  E     E  E  E  E   
--------------|-----0--------|--------------|--------------|-----5--2-----|
--2--3--------|--0-----2--0--|--------------|--------0--2--|--3--------0--|
--------2-----|--------------|--2-----------|--0--2--------|--------------|
-----0--4-----|--------------|--------4-----|-----------0--|-----0--4-----|
--0--------0--|--------------|-----0--------|--------2-----|--2-----------|
--------------|--3-----0-----|--2--------2--|--0--3--------|--------------|


  E  E  E  E     E  E  E  E     Q    E  E     E  E  E  E     E  E  E  E   
--2--0--------|--------------|-------------|--------------|--0-----------|
--------------|--0-----------|--L-------0--|--3-----2--3--|--------0-----|
--------2-----|--------------|-------------|--------------|--------------|
-----------4--|--2--------2--|--1----------|--------------|--------------|
--------------|--------4-----|-------------|--------------|--------------|
--2-----0-----|-----0--------|-------------|--3--3-----3--|--3--3-----3--|


  E  E  E  E     E  E  E  E     E  E  E  E     E  E  E  E     E  E  E  E   
--------------|--------------|--------------|--------------|--------0-----|
--2-----------|--------------|--0--------0--|--2-----------|--3-----2-----|
-----2--------|--------------|--------3-----|--------------|--4-----------|
--------4--2--|--4--------4--|--------------|--------4-----|--------------|
--0-----0--4--|--5-----2-----|--------------|--------------|-----2-----4--|
-----2--------|-----2--------|--3--3-----3--|--2--2-----2--|--------------|


  E  E  E  E     E  E  E  E     E  E  E  E     E  E  E  E     E  E  E  E   
--2--------0--|--2--------0--|-----------0--|--2-----------|--L--------0--|
--3-----3-----|--------------|--3--2--3-----|--------------|--------3-----|
--------------|--------------|--------------|--------------|--2-----------|
-----0--0--0--|-----------0--|--4--0--------|-----0--2--4--|-----4--0-----|
--------------|--------2-----|--------2-----|--0-----------|-----------0--|
--------------|--0--3--------|-----------3--|--------------|--------------|


  E  E  E  E     E  E  E  E     E  E  E  E     E  E  E  E     E  E  E  E   
--2--------0--|--------------|--2--------2--|--------0--2--|--------------|
--------------|--3--2--3--0--|--2--3--5-----|-----2--------|-----0--0--0--|
-----------0--|--4--0--------|--------------|--3-----------|--------------|
-----0--2-----|--------2-----|--------------|--------------|-----4--------|
--2-----------|-----------2--|--------------|--1-----------|--2--------2--|
--------------|--------------|--2-----------|--------------|--------------|


  E  E  E  E     E  E  E  E     E  E  E  E     E  E  E  E     E  E  E  E   
--------------|--------------|--------------|--------------|--0-----2--3--|
--0--2--------|--------------|--------2-----|--0-----2--3--|--------------|
--2-----2--0--|--------------|-----------2--|--------------|--2-----------|
--------------|--4--2--4--4--|--------------|--2-----------|-----2--------|
--0--------0--|--5--------5--|-----4--------|-----2--------|--0--------0--|
--------------|--------------|--2--------2--|--0--------0--|--------------|


  E  E  E  E     E  E  E  E     E  E  E  E     E  E  E  E     E  E  E  E   
--5-----3--2--|--0-----2-----|--------------|--------------|--------------|
--------------|--0-----------|-----0--0--0--|--0--2--------|--------------|
-----2--------|--------3-----|--------------|--2-----2--0--|--------------|
--0--------0--|--------------|-----4--------|--------------|--4--2--4--4--|
--------------|--4--4-----4--|--2--------2--|--0--------0--|--5--------5--|
--------------|--------------|--------------|--------------|--------------|


              1____________
  E  E  E  E  |  Q    Q       Q    E  E     E  E  E  E     Q    E  E     
--------------|-------2----|-------------|--------------|--------------||
--------2-----|--0---------|--0----2-----|--0-----------|----------0---||
-----------2--|--0----4----|--0-------2--|--------------|-------------*||
-----------2--|-------4----|-------------|-----------2--|--1----------*||
-----4--------|------------|-------------|--2-----2-----|--------------||
--2--------2--|--0---------|--0-------2--|-----2--------|--------------||


  ritartando....................
2_____________
         NH         NH             ^          
  Q      Q          Q    E   E     H          
--------------|----------9------|--7--------||
--0----<>7----|--<>12-------10--|--7--------||
--0-----------|-----------------|--8--------||
--------------|-----------------|--9--------||
--------------|-----------------|--9--------||
--0-----------|-----L-----------|--7--------||





Duration Legend
---------------
H - half
Q - quarter
E - 8th
. - note dotted


Tablature Legend
----------------
L - tied note
NH - natural harmonic
^ - brush up
Login or Register to remove this ad.

2 comments on Thema

Awesome tab! definitely going

Awesome tab! definitely going to learn this one to death lol.

Thanks

Good job on this one man.. fun to play