Ads

Mamotte Ageru (Solo) (Saber Marionette J) Guitar Tab

Submitted: Jul 07, 2011 by Caldron

0
Download | Listen
Game: Saber Marionette J
Composer(s): Megumi Hayashibara
Style: Alternate picking, Pinch harmonics, Transcription, Tremolo, Trill

AutoScroll: Slow | Medium | Fast
Mamotte Ageru                 
Akiko Hiramatsu

Saber Marionette J


Tabbed by Caldron



Electric guitar


Solo 1


     S   S  E  Q.      Q       E   
E||------------8------10pbr----8--|
B||--8h-10p-8---------------------|
G||-------------------------------|
D||-------------------------------|
A||-------------------------------|
E||-------------------------------|


   S E   E  E   Q.      S S   S   
--10-8------8--------------------|
--------11-----11~--------8h-11h-|
---------------------------------|
---------------------------------|
---------------------------------|
---------------------------------|


  E   E   E     E   E  E  E   E   
---------------------------------|
--8------------------------------|
-----10--10pbr--8--10--8--9------|
-----------------------------10--|
---------------------------------|
---------------------------------|


  E  E    Q    E   E  E   E   
-----------------------------|
-----------------------------|
-----------------------------|
--L--8-----------------------|
--------\10----8------8b-----|
------------------11------8--|


   PM PM  PM PM  PM PM  PM PM  PM PM  PM PM  
   |---3--|  |---3--|   |---3--|  |---3--|   
   E  E   E  E   E  E   E  E   E  E   E  E   
--------------------------------------------|
--------------------------------------------|
-----------------------------------------8--|
--------------------8------8--10--8--10-----|
------8--10--8--10-----10-------------------|
--11----------------------------------------|


   S S  Q      S S  S E  Q    S   
---------------------------------|
----------------------6--L----Ls-|
--10-8-10b----10-8-10------------|
---------------------------------|
---------------------------------|
---------------------------------|


   E   Q.       E   Q         E   
---------------------------------|
--16-----------------------------|
------18b------17--15b----15g17--|
---------------------------------|
---------------------------------|
---------------------------------|


  E    S  S  H          E   E    
--------------------------------|
---------------------------18b--|
--Ls--15-12-15b~----------------|
--------------------------------|
--------------------------------|
--------------------------------|


  Q     E   Q.       S  S  E   
-------15---------------------|
--L--------18b------16-18-16--|
------------------------------|
------------------------------|
------------------------------|
------------------------------|


        |---3---|                        
   E    E   E   E   S  Q.      S  S   S  
----------------------18b--------18p-15-|
--18b--16--18------16-------------------|
---------------17-----------------------|
----------------------------------------|
----------------------------------------|
----------------------------------------|


   S  S  E    S  S S  S  S  S  E   S  S  E   
-----15------15-----------------------------|
--18----18b-----18---16-18-16-----16--------|
------------------------------17-----17-17--|
--------------------------------------------|
--------------------------------------------|
--------------------------------------------|


  E   S  S  Q    E   S   S  S  S   S  S  
--------11-----------------11--------11-|
-----11----13-------11h-13----11h-13----|
----------------------------------------|
----------------------------------------|
----------------------------------------|
----------------------------------------|


   S   S  S  S   S  S  S   S  S  S   S  S  S 
---------11--------11--------11--------11----
--11h-13----11h-13----11h-13----11h-13----11h
---------------------------------------------
---------------------------------------------
---------------------------------------------
---------------------------------------------


   Q.       E   E   Q       E   
--13b------11--13--12br----12--|
-------------------------------|
-------------------------------|
-------------------------------|
-------------------------------|
-------------------------------|


   E.      S  H          E.     S  
--12pbr-----------------18br---15-|
----------15-13~------------------|
----------------------------------|
----------------------------------|
----------------------------------|
----------------------------------|


   E.     S  H.                              
--18br---15-18b~------------|---------------|
----------------------------|---------------|
----------------------------|---------------|
----------------------------|---------------|
----------------------------|---------------|
----------------------------|---------------|




Solo 2


   tr                         
   H             Q     E  E   
--12(13)--------12\----3--5--|
-----------------------------|
-----------------------------|
-----------------------------|
-----------------------------|
-----------------------------|


  Q    E  Q      E  E.    S  
--3-------------------------|
----------------------------|
----------7br----5--7br---5-|
----------------------------|
----------------------------|
----------------------------|


  E  Q    S S E  E  E  E   
-----------------------8--|
--------------------5-----|
--7--5--------5--7--------|
----------5-7-------------|
--------------------------|
--------------------------|


  E   E   E   E   E   Q.       
--L--------------12-----------|
-----13--15--13------15b------|
------------------------------|
------------------------------|
------------------------------|
------------------------------|


   H          Q     E   E    
------------/15----15--15s--|
--13------------------------|
----------------------------|
----------------------------|
----------------------------|
----------------------------|


   E   Q      S   S  E    E   E   S   S  
--17--15~----13p-12-13p--12-------------|
-----------------------------13---------|
-----------------------------12--12h-14-|
----------------------------------------|
----------------------------------------|
----------------------------------------|


   S  S   S  S  E  E  E.    S S S S S  
--------------------------------------|
--13--------13-\3---------------------|
-----12h-14--------5--7br---5-7-5---5-|
----------------------------------7---|
--------------------------------------|
--------------------------------------|


  S  S E   E  E  S  S Q    E   
------------------------------|
------------------------------|
-------5--------------5-------|
--5h-7------------------------|
----------\5--3--5s-7---------|
------------------------------|


  E   Q.       Q.       S  S  
-----------------------------|
-----16b------15b------15-13-|
-----------------------------|
-----------------------------|
-----------------------------|
-----------------------------|


   E  S   S  S  S  Q     Q      E   
-------------------------------15--|
--15--Lb-15-13-15-13----15b-----L--|
-----------------------------------|
-----------------------------------|
-----------------------------------|
-----------------------------------|


   E    E   E   Q      E   Q      
---L---15--15---L-----15---L-----|
--15b---L---L--15b-----L--15b----|
---------------------------------|
---------------------------------|
---------------------------------|
---------------------------------|


   S  E    S  E    S  E    S  Q     E   
--15--L---15--L---15--L---15--L--------|
---L-15b---L-15b---L-15b---L-15b-------|
---------------------------------------|
---------------------------------------|
---------------------------------------|
---------------------------------------|


  E   Q      S  S  S  S  E    S  S  S  S  
-----18b----18-15----15------15-18-15----|
------------------18----18b-----------18-|
-----------------------------------------|
-----------------------------------------|
-----------------------------------------|
-----------------------------------------|


   S  E    S  E.    S  S  S  S  S  T  T  T  T
--15------18---------------------------------
-----18b-----18b---16----18----16------------
----------------------17----17----17-15------
----------------------------------------17-15
---------------------------------------------
---------------------------------------------


                        PH               
   S  S   E   E   E     E   S E   S  E   
----------------------------------------|
-------------16--16--<>16--------16-17--|
----------------------------------------|
-----15s-17----------------17-----------|
--18------------------------------------|
----------------------------------------|


            PH   PH                         
   S  E     S    E   E   E     E   S  E.    
------------------------------------------||
--16-17--<>16-<>17--18--18br--16--18------||
-------------------------------------17---||
------------------------------------------||
------------------------------------------||
------------------------------------------||




Duration Legend
---------------
W - whole
H - half
Q - quarter
E - 8th
S - 16th
T - 32nd
X - 64th
. - note dotted
|-n-|  - n-tuplets


Tablature Legend
----------------
L - tied note
x - dead note
g - grace note
(n) - ghost note
> - accentuded note
NH - natural harmonic
AH - artificial harmonic
TH - tapped harmonic
SH - semi harmonic
PH - pitch harmonic
h - hammer on
p - pull off
b - bend
br - bendRelease
pb - preBend
pbr - preBendRelease
brb - bendReleaseBend
\n/ - tremolo bar dip
\n - tremolo bar dive
-/n - tremolo bar Release up
/n\ - tremolo bar inverted dip
/n - tremolo bar return
-\n - tremolo bar Release down
S - shift slide
s - legato slide
/ -  slide into from below or out of upwards
\ -  slide into from above or out of downwards
~ - vibrato
W - wide vibrato
tr - trill
TP - tremolo picking
T - tapping
S - slap
P - pop
< - fade in
^ - brush up
v - brush down
Login or Register to remove this ad.