Ads

Red Like Roses (RWBY) Guitar Tab

Submitted: Jul 02, 2013 by scarecrowlol

5
Average: 5 (7 votes)
Download | Listen
Game: RWBY
Composer(s): Jeff Williams
Style: 2 or more instruments, Arrangement, Fingerstyle

AutoScroll: Slow | Medium | Fast
Title: Red like Roses
SubTitle: RWBY
Artist: Jeff Williams
Tabber: Mitch Jackson
Tempo = 140
T/S = 4/4

        
     E  E  E  E  E  E  E  E       E  E  E  E  E  E  E  E       E  E  E  E  E  E  E  E       E  E  E  E  E  E  E  E     
E |--10----9-----10----9-------|--10----9-----14-12-10-9----|--10----9-----10----9-------|--10----9-----14-12-10-9----|
B |----------------------------|----------------------------|----------------------------|----------------------------|
G |----------------------------|----------------------------|----------------------------|----------------------------|
D |-----------9-----------9----|-----------9--------9-------|-----------9-----------9----|-----------9--------9-------|
A |-----9-----------9----------|-----9----------------------|-----9-----------9----------|-----9----------------------|
D |--9-------------------------|--9-------------------------|--9-------------------------|--9-------------------------|

                                                          

     E  E  E  E  E  E  E  E       E  E  E  E  E  E  E  E       E  E  Q     E  E  E  E       E  E  E  E  H              
  |--10----9-----10----9-------|--10----9-------------------|--10----9-----7-----5-------|--7-----5-------------------|
  |----------------------------|--------------7--5----------|----------------------------|----------------------------|
  |----------------------------|--------------------7--6----|----------------------------|----------------------------|
  |-----------5-----------5----|--------5-----------5-------|--------5-----5-------------|--5--------5L-L-------------|
  |-----5-----------5----------|-----5-----------5----------|-----5-----------5-----5----|-----5----------------------|
  |--5-------------------------|--5-----------5-------------|--5-----------------5-------|--------5-------------------|

                                                          

     E  E  E  E  E  E  E  E       E  E  E  E  E  E  E  E       E  E  E  E  E  E  E  E       E  E  E  E  E  E  E  E     
  |--10----9-----10----9-------|--10----9-----14-12-10-9----|--10----9-----10----9-------|--10----9--------9--10-12---|
  |--12------------------------|----------------------------|----------------------------|--------------12------------|
  |----------------------------|----------------------------|--11------------------------|----------------------------|
  |-----------9-----------9----|-----------9--------9-------|-----------9-----------9----|-----------9----------------|
  |-----9-----------9----------|-----9----------------------|-----9-----------9----------|-----9----------------------|
  |--9-------------------------|--9-------------------------|--9-------------------------|--9-------------------------|

                                                          
      
     E  E  E  E  E  E  E  E       E  E  E  E  E  E  E  E       E  E  E  E  E  E  E  E       W                          
  |----------------------------|--7-------------------------|----------------------------|--5-------------------------|
  |--7-------------------------|-----------------------5----|--7-------------------------|----------------------------|
  |--------7-----6-----7-------|-----------------6--7-------|--------7-----6-----7-------|----------------------------|
  |-----------5-----------5----|--------5-----9-------------|-----------5-----------5----|--7-------------------------|
  |-----5-----------5----------|-----5-----5----------------|-----5-----------5----------|----------------------------|
  |--5-------------------------|--5-----------5-------------|--5-------------------------|--5-------------------------|

     Red         like             ro-         ses              fills       my               dreams      and
     
     E  E  E  E  E  E  E  E       E  E  E  E  E  E  E  E       E  E  E  E  E  E  E  E       E  E  E  E  E  E  E  E     
  |----------------------------|----------------------------|----------------------------|----------------------------|
  |----------------------------|----------------------------|----------------------------|--------------10------------|
  |--11----------9-------------|--11----------9-------------|--11----------9-------------|--11------------------------|
  |--------9-----------9-------|--------9-----------9-------|--------9-----------9-------|--------9-----------9-------|
  |-----9-----9-----9-----9----|-----9-----9-----9-----9----|-----9-----9-----9-----9----|-----9-----9-----9-----9----|
  |--9-----------9-------------|--9-----------9-------------|--9-----------9-------------|--9-----------9-------------|

     brings      me               to          the              place       you              rest                                                         
             
     E  E  E  E  E  E  E  E       E  E  E  E  E  E  E  E       E  E  E  E  E  E  E  E       E  E  E  E  H              
  |--7-----------10------------|--9-----------5-------------|--7-----------5-------------|----------------------------|
  |----------------------------|----------------------------|----------------------------|--7-------------------------|
  |----------------------------|----------------------------|----------------------------|----------------------------|
  |--------5-----------5-------|--------5-----------5-------|--------5-----------5-------|--------5-------------------|
  |-----5-----5-----5-----5----|-----5-----5-----5-----5----|-----5-----5-----5-----5----|-----5-----5L-L-------------|
  |--5-----------5-------------|--5-----------5-------------|--5-----------5-------------|--5-------------------------|

     White       is               cold        and              al-         ways             year-       ning
                                                          
     E  E  E  E  E  E  E  E       E  E  E  E  E  E  E  E       E  E  E  E  E  E  E  E       E  E  E  E  E  E  E  E     
  |----------------------------|----------------------------|----------------------------|--------------9-------------|
  |----------------------------|----------------------------|--------------10------------|--12------------------------|
  |--11----------9-------------|--11----------9-------------|--11------------------------|----------------------------|
  |--------9-----------9-------|--------9-----------9-------|--------9-----------9-------|--------9-----------9-------|
  |-----9-----9-----9-----9----|-----9-----9-----9-----9----|-----9-----9-----9-----9----|-----9-----9-----9-----9----|
  |--9-----------9-------------|--9-----------9-------------|--9-----------9-------------|--9-----------9-------------|

     bur-        dened            by                a          roy-        al               test                                              
          
     E  E  E  E  E  E  E  E       E  E  E  E  E  E  E  E       E  E  E  E  E  E  E  E       E  E  E  E  H              
  |----------------------------|----------------------------|----------------------------|----------------------------|
  |----------------------------|--5-------------------------|--------------5-------------|--5-------------------------|
  |--7-----------7-------------|--------------------7-------|--7-------------------------|----------------------------|
  |--------5-----------5-------|--------5-----------5-------|--------5-----------5-------|--------5-------------------|
  |-----5-----5-----5-----5----|-----5-----5-----5-----5----|-----5-----5-----5-----5----|-----5-----5L-L-------------|
  |--5-----------5-------------|--5-----------5-------------|--5-----------5-------------|--5-------------------------|

     Black       the              beast       de-              scends      from             sha-        dows                                                      

     E  E  E  E  E  E  E  E       E  E  E  E  E  E  E  E       E  E  E  E  E  E  E  E       E  E  E  E  E  E  E  E     
  |--1-----------0-------------|--1-----------3-------------|--1-----------0-------------|----------------------------|
  |----------------------------|----------------------------|----------------------------|--3-------------------------|
  |----------------------------|----------------------------|----------------------------|--------------2-------------|
  |--------0-----------0-------|--------0-----------0-------|--------0-----------0-------|--------0-----------0-------|
  |-----0-----0-----0-----0----|-----0-----0-----0-----0----|-----3-----3-----3-----3----|-----3-----3-----3-----3----|
  |--0-----------0-------------|--0-----------0-------------|--3-----------3-------------|--3-----------3-------------|

     Yel-        low              beau-       ty               burns                                                        
   
     E  E  E  E  E  E  E  E       E  E  E  E  E  E  E  E       E  E  E  E  E  E  E  E       E  E  E  E  E  E  E  E     
  |--1-----------0-------------|--1-----------3-------------|--5-------------------------|----------------------------|
  |----------------------------|----------------------------|----------------------------|----------------------------|
  |----------------------------|----------------------------|----------------------------|----------------------------|
  |--------0-----------0-------|--------0-----------0-------|--------5-----------5-------|--------5-----------5-------|
  |-----0-----0-----0-----0----|-----0-----0-----0-----0----|-----5-----5-----5-----5----|-----5-----5-----5-----5----|
  |--0-----------0-------------|--0-----------0-------------|--5-----------5-------------|--5-----------5-------------|

     gold...                                                     
                                                             T/S = 6/4
     W                            W                            W.
  |----------------------------|----------------------------|----------------------------------------|
  |----------------------------|----------------------------|----------------------------------------|
  |--7L~-----------------------|--L~------------------------|--L~------------------------------------|
  |----------------------------|----------------------------|----------------------------------------|
  |----------------------------|----------------------------|----------------------------------------|
  |--0L~-----------------------|--L~------------------------|--L~------------------------------------|


   200BPM
     Q.       E  E  E  Q     Q     Q          Q.       E  Q     S E.   H                E  E  E  E  E  E  S E.  E  E  E  E     
  |--5--------5-----8--6-----5-------------|-----------------------------------------|--------------------4s5---8--6--5-------|
  |--6--------6--------------------8-------|--6--------8--------8s10---8~------------|--------5--6--8--------------------8----|
  |----------------------------------------|-----------------------------------------|--5--7----------------------------------|
  |-(0)------------------------------------|-----------------------------------------|----------------------------------------|
  |----------------------------------------|-----------------------------------------|----------------------------------------|
  |----------------------------------------|-----------------------------------------|----------------------------------------|
                                                                             


     Q     E  E  E  E  E  E  Q     Q          Q.       E  E  E  Q     E  E  E  E       Q     E  E  E  E  Q     E  E  Q        
  |----------------------------------------|-----------5-----8--6-----5--6--5-------|----------------------------------------|
  |--6-----6--8--5--6--5s-6--5-------------|-----------------------------------8----|--6-----5--6--5-----5-----------5-------|
  |--------------------------------7~------|--7-------------------------------------|-----------------5--------5s-7----------|
  |----------------------------------------|----------------------------------------|----------------------------------------|
  |----------------------------------------|----------------------------------------|----------------------------------------|
  |----------------------------------------|----------------------------------------|----------------------------------------|

                                         
 
     Q     E  Q     E  E  E  E  E  E  E       E  E  E  H           E  E  E  E  E       Q.       E  E  E  Q     Q     Q        
  |--------5--5-----8--6--5----------------|-----------------------------------5----|--8--------6-----5----------------------|
  |--6-----------------------8--6--8--6----|--5s-6-----------------------5--6-------|--------------------8-----6-----5-------|
  |----------------------------------------|--------7--7L----------L--7-------------|----------------------------------------|
  |----------------------------------------|----------------------------------------|----------------------------------------|
  |----------------------------------------|----------------------------------------|----------------------------------------|
  |----------------------------------------|----------------------------------------|----------------------------------------|

                                         

     E  E  E  Q.       E  E  E  E  E  E       Q.       E  E  E  Q     Q     Q          S E.   E  E  Q     S E.   E  E  Q        
  |----------------------------------------|--5--------5-----8--6-----5-------------|------------------------------------------|
  |--5s-6----------------------------------|--------------------------------6-------|--8s10---10-10-10----8s10---10-10-10L-----|
  |-----------7--------7-------------------|----------------------------------------|------------------------------------------|
  |--------------------------8-----7-------|----------------------------------------|------------------------------------------|
  |----------------------------------------|----------------------------------------|------------------------------------------|
  |----------------------------------------|----------------------------------------|------------------------------------------|

                                         

     Q     E  E  E  E  E  E  Q     Q          Q     Q     Q     Q     Q     Q          Q     E  E  E  E  Q     E  E  E  E     
  |--------10-10-10-10-10------------------|----------------------------------------|----------------------------------------|
  |--L-----------------------10----10L-----|--L-----8-----------8-----10------------|--------5s-6----------------------------|
  |----------------------------------------|--------------------------7-----5-------|-----------------7--5-------------------|
  |----------------------------------------|----------------------------------------|--------------------------5--5--5--5----|
  |----------------------------------------|----------------------------------------|----------------------------------------|
  |----------------------------------------|----------------------------------------|----------------------------------------|

                                         
                                            (Section of percussion only)
     E  E  E  E  E  E  H.                                                        
  |----------------------------------------|----------------------------------------|----------------------------------------|
  |----------------------------------------|----------------------------------------|----------------------------------------|
  |----------------------------------------|----------------------------------------|----------------------------------------|
  |----------------------------------------|----------------------------------------|----------------------------------------|
  |--5--7--5--7--5--5--5-------------------|----------------------------------------|----------------------------------------|
  |----------------------------------------|----------------------------------------|----------------------------------------|
                                    
                                                                                    (This is just to accompany the drums)
                                                                                    |---------PALM-MUTE--------------------->
                                                                                       E  E  E  E  E  Q     E  E  E  Q 
  |----------------------------------------|----------------------------------------|----------------------------------------|
  |----------------------------------------|----------------------------------------|--------3-----3-----------3-----3-------|
  |----------------------------------------|----------------------------------------|-----5-----5-----5-----5-----5----------|
  |----------------------------------------|----------------------------------------|----------------------------------------|
  |----------------------------------------|----------------------------------------|----------------------------------------|
  |----------------------------------------|----------------------------------------|----------------------------------------|


  -------------------------------------------------------------------------------------------------------------------------->
     E  E  E  E  E  Q     E  E  E  Q          E  E  E  E  E  Q     E  E  E  Q          E  E  E  E  E  Q     E  E  Q.          
  |----------------------------------------|----------------------------------------|----------------------------------------|
  |--------3-----3-----------3-----3-------|--------3-----3-----------3-----3-------|--------3-----3-----------3L-L----------|
  |-----5-----5-----5-----5-----5----------|-----5-----5-----5-----5-----5----------|-----5-----5-----5-----5----------------|
  |----------------------------------------|----------------------------------------|----------------------------------------|
  |----------------------------------------|----------------------------------------|----------------------------------------|
  |----------------------------------------|----------------------------------------|----------------------------------------|

                                         

      E  E  E  E  E  E  Q     E  E  E  E       E  E  E  E  E  E  E  E  E  E  E  E       E  E  E  E  E  E  Q     E  E  E  E     
  ||--10------------------------------------|--10----------------10-10---------------|--10------------------------------------|
  ||--10----------------10----8-------------|--10----------------------10-11-10------|--10----------------10----8-------------|
  ||o-------7--9--10-7-----------10-9--10---|--------7--9--10-7-----------------10---|--------7--9--10-7-----------10-9--10---|
  ||o-0-------------------------------------|--0-------------------------------------|--0-------------------------------------|
  ||----------------------------------------|----------------------------------------|----------------------------------------|
  ||----------------------------------------|----------------------------------------|----------------------------------------|

                                         

     E  E  E  E  E  E  E  E  E  E  E  E       E  E  H           E  E  H                E  E  H           Q     Q     Q        
  |-----6--5-----------5--------------0---||----------------------------------------|----------------------------------------|
  |--8--------8--6--8-----8--6--8--6------||----------------------------------------|----------------------------------------|
  |--------------------------------------o||----------------------------------------|----------------------------------------|
  |--------------------------------------o||--0-----------------0-------------------|--0-----------------3-----5-----3-------|
  |---------------------------------------||--0-----------------0-------------------|--0-----------------3-----5-----3-------|
  |---------------------------------------||--0-----------------0-------------------|--0-----------------3-----5-----3-------|

                                         

     E  E  H           E  E  H                E  E  H           Q     Q     Q          E  E  E  E  E  E  E  E  E  E  E  E     
  |----------------------------------------|----------------------------------------|--------------3--5--------------0--3----|
  |-(3)---------------(3)------------------|-(3)------------------------------------|--------3-----------------3-------------|
  |-(2)---------------(2)------------------|-(2)---------------(5)---(7)---(5)------|----------------------------------------|
  |--0-----------------0-------------------|--0-----------------3-----5-----3-------|--0-----------------0-------------------|
  |--0-----------------0-------------------|--0-----------------3-----5-----3-------|--0-----------------0-------------------|
  |--0-----------------0-------------------|--0-----------------3-----5-----3-------|--0-----------------0-------------------|

                                         

     E  E  E  E  E  E  Q     Q     Q          E  E  E  E  E  E  E  E  E  E  E  E       E  E  E  E  E  E  Q     Q     E  E     
  |--------------3--5--------------6-------|--------------3--5--------------0--3----|--------------3--5--6-----5--------3----|
  |--------3-------------------------------|--------3-----------------3-------------|--------3-----------------------6-------|
  |--------------------------7-------------|----------------------------------------|----------------------------------------|
  |--0-----------------3-----5-----3-------|--0-----------------0-------------------|--0-----------------3-----5-----3-------|
  |--0-----------------3-----5-----3-------|--0-----------------0-------------------|--0-----------------3-----5-----3-------|
  |--0-----------------3-----5-----3-------|--0-----------------0-------------------|--0-----------------3-----5-----3-------|

                                         
  |-200BPM--------RALL------------------------------------------------------------------------------------------------------->
     H.                H.                     H.                H.                     H.                H.                   
  |--6-----------------5-------------------|----------------------------------------|--6-----------------5-------------------|
  |--6-----------------5-------------------|--4-----------------3-------------------|--6-----------------5-------------------|
  |----------------------------------------|----------------------------------------|----------------------------------------|
  |--8-----------------7-------------------|--5-----------------5-------------------|--8-----------------7-------------------|
  |----------------------------------------|--6-----------------5-------------------|----------------------------------------|
  |--0-------------------------------------|--0-------------------------------------|--0-------------------------------------|


  |---------------------------------------> 180BPM                                                       ^
     H.                H.                     H.                H.                     H.                H.                   
  |----------------------------------------|--4-----------------3-------------------|----------------------------------------|
  |--4-----------------3-------------------|--4-----------------3-------------------|--4-----------------3L------------------|
  |----------------------------------------|----------------------------------------|--------------------3L------------------|
  |--5-----------------5-------------------|--6-----------------5-------------------|--5-----------------5L------------------|
  |--6-----------------5-------------------|----------------------------------------|--6-----------------5L------------------|
  |--0-------------------------------------|--0-------------------------------------|--0-----------------0L------------------|



     W.                                       W.                                       W.
  |----------------------------------------|----------------------------------------|----------------------------------------|
  |--L-------------------------------------|--L-------------------------------------|--L-------------------------------------|
  |--L-------------------------------------|--L-------------------------------------|--L-------------------------------------|
  |--L-------------------------------------|--L-------------------------------------|--L-------------------------------------|
  |--L-------------------------------------|--L-------------------------------------|--L-------------------------------------|
  |--L-------------------------------------|--L-------------------------------------|--L-------------------------------------|

                                           200BPM  (The fast part :O)
                                           T/S = 4/4
     W.                                       E  E  E  E  E  E  E  E       E  E  E  E  E  E  E  E       E  E  E  E  E  E  E  E
  |----------------------------------------|--10----9-----10----9-------|--10----9-----14-12-10-9----|----------------------------|
  |--L-------------------------------------|----------------------------|----------------------------|----------------------------|
  |--L-------------------------------------|----------------------------|----------------------------|--7-----6-----7-----6-------|
  |--L-------------------------------------|----------------------------|----------------------------|----------------------------|
  |--L-------------------------------------|-----9-----9-----9-----9----|-----9-----9----------------|-----5-----5-----5-----5----|
  |--L-------------------------------------|--9-----------9-------------|--9-------------------------|--5-----------5-------------|



     E  E  E  E  E  E  E  E       E  E  E  E  E  E  E  E       E  E  E  E  E  E  E  E       E  E  E  E  E  E  E  E     
  |----------------------------|--10----9-----10----9-------|--10----9-----14-12-10-9----|----------------------------|
  |--------------7h-5----------|----------------------------|----------------------------|----------------------------|
  |--7-----6-----------7h-6----|----------------------------|----------------------------|--7-----6-----7-----6-------|
  |----------------------------|----------------------------|----------------------------|----------------------------|
  |-----5-----5----------------|-----9-----9-----9-----9----|-----9-----9----------------|-----5-----5-----5-----5----|
  |--5-------------------------|--9-----------9-------------|--9-------------------------|--5-----------5-------------|

                                                          

     E  E  E  E  E  E  E  E       E  E  E  E  E  E  E  E       E  E  E  E  E  E  E  E       E  E  E  E  E  E  E  E     
  |----------------------------|--13----12----13----12------|--13----12----17-15-13-12---|----------------------------|
  |----------------------------|----------------------------|----------------------------|----------------------------|
  |--7-----6-----7-----6--7----|----------------------------|----------------------------|--10----9-----10----9-------|
  |-----------------9----------|----------------------------|----------------------------|----------------------------|
  |-----5-----5----------------|-----12----12----12----12---|-----12----12---------------|-----8-----8-----8-----8----|
  |--5-------------------------|--12----------12------------|--12------------------------|--8-----------8-------------|


                                                          
     E  E  E  E  E  E  E  E       E  E  E  E  E  E  E  E       E  E  E  E  E  E  E  E       E  E  E  E  E  E  E  E     
  |----------------------------|--13----12----13----12------|--13----12----17-15-13-12---|----------------------------|
  |--------------10h8----------|----------------------------|----------------------------|----------------------------|
  |--10----9-----------10h9----|----------------------------|----------------------------|--10----9-----10----9-------|
  |----------------------------|----------------------------|----------------------------|----------------------------|
  |-----8-----8----------------|-----12----12----12----12---|-----12----12---------------|-----8-----8-----8-----8----|
  |--8-------------------------|--12----------12------------|--12------------------------|--8-----------8-------------|

                                                          
                                                                                            ^
     E  E  E  E  E  E  E  E       E  E  E  E  E  E  E  E       E  E  E  E  E  E  E  E       W                          
  |----------------------------|----------------------------|----------------------------|--10L-----------------------|
  |--------------10h8----------|----------------------------|----------------------------|--10L-----------------------|
  |--10----9-----------10h9----|----------------------------|----------------------------|--7L------------------------|
  |----------------------------|----------------------------|----------------------------|--7L------------------------|
  |-----8-----8----------------|--0--0--x--0--0--0--x--0----|--0--0--0--0--0--0--0--0----|--0L------------------------|
  |--8-------------------------|--0--0--x--0--0--0--x--0----|--0--0--0--0--0--0--0--0----|--0L------------------------|



     W                            W                            W
  |--L-------------------------|--L-------------------------|--L-------------------------||
  |--L-------------------------|--L-------------------------|--L-------------------------||
  |--L-------------------------|--L-------------------------|--L-------------------------||
  |--L-------------------------|--L-------------------------|--L-------------------------||
  |--L-------------------------|--L-------------------------|--L-------------------------||
  |--L-------------------------|--L-------------------------|--L-------------------------||




GUITAR II - SOLO BACKING
---------------------------

   T/S = 6/4   
   200BPM
   
  Starts at measure 44 and ends at 60

  
     Q     E  E  E  E  Q     Q     Q          Q     E  E  E  Q     Q     E  E  E       Q     E  E  E  E  Q     Q     Q
E |-(5)------(5)---(5)(5)---(5)------------|-(5)------(5)---(5)---(5)---(5)(5)(5)---|-(5)------(5)---(5)(5)---(5)------------|
B |--6-----x--6--x--6--6-----6-----x-------|--6-----x--6--x--6-----6-----6--6--6----|--6-----x--6--x--6--6-----6-----x-------|
G |--7-----x--7--x--7--7-----7-----x-------|--7-----x--7--x--7-----7-----7--7--7----|--7-----x--7--x--7--7-----7-----x-------|
D |--7-----x--7--x--7--7-----7-----x-------|--7-----x--7--x--7-----7-----7--7--7----|--7-----x--7--x--7--7-----7-----x-------|
A |--5-----x--5--x--5--5-----5-----x-------|--5-----x--5--x--5-----5-----5--5--5----|--5-----x--5--x--5--5-----5-----x-------|
D |----------------------------------------|----------------------------------------|----------------------------------------|



     Q     E  E  E  Q     Q     E  E  E       Q     E  E  E  E  Q     Q     Q          Q     E  E  E  Q     Q     E  E  E     
  |-(5)------(5)---(5)---(5)---(5)(5)(5)---|-(5)------(5)---(5)(5)---(5)------------|-(5)------(5)---(5)---(5)---(5)(5)(5)---|
  |--6-----x--6--x--6-----6-----6--6--6----|--6-----x--6--x--6--6-----6-----x-------|--6-----x--6--x--6-----6-----6--6--6----|
  |--7-----x--7--x--7-----7-----7--7--7----|--7-----x--7--x--7--7-----7-----x-------|--7-----x--7--x--7-----7-----7--7--7----|
  |--7-----x--7--x--7-----7-----7--7--7----|--7-----x--7--x--7--7-----7-----x-------|--7-----x--7--x--7-----7-----7--7--7----|
  |--5-----x--5--x--5-----5-----5--5--5----|--5-----x--5--x--5--5-----5-----x-------|--5-----x--5--x--5-----5-----5--5--5----|
  |----------------------------------------|----------------------------------------|----------------------------------------|



     Q     E  E  E  E  Q     Q     Q          Q     E  E  E  Q     Q     E  E  E       Q     E  E  E  E  Q     Q     Q
  |-(5)------(5)---(5)(5)---(5)------------|-(5)------(5)---(5)---(5)---(5)(5)(5)---|-(8)------(8)---(8)(8)---(8)------------|
  |--6-----x--6--x--6--6-----6-----x-------|--6-----x--6--x--6-----6-----6--6--6----|--6-----x--6--x--6--6-----6-----x-------|
  |--7-----x--7--x--7--7-----7-----x-------|--7-----x--7--x--7-----7-----7--7--7----|--7-----x--7--x--7--7-----7-----x-------|
  |--7-----x--7--x--7--7-----7-----x-------|--7-----x--7--x--7-----7-----7--7--7----|--5-----x--5--x--5--5-----5-----x-------|
  |--5-----x--5--x--5--5-----5-----x-------|--5-----x--5--x--5-----5-----5--5--5----|--5-----x--5--x--5--5-----5-----x-------|
  |----------------------------------------|----------------------------------------|----------------------------------------|



     Q     E  E  E  Q     Q     E  E  E       Q     E  E  E  E  Q     Q     Q          Q     E  E  E  Q     Q     E  E  E 
  |-(8)------(8)---(8)---(8)---(8)(8)(8)---|-(5)------(5)---(5)(5)---(5)------------|-(5)------(5)---(5)---(5)---(5)(5)(5)---|
  |--6-----x--6--x--6-----6-----6--6--6----|--5-----x--5--x--5--5-----5-----x-------|--5-----x--5--x--5-----5-----5--5--5----|
  |--7-----x--7--x--7-----7-----7--7--7----|--6-----x--6--x--6--6-----6-----x-------|--6-----x--6--x--6-----6-----6--6--6----|
  |--5-----x--5--x--5-----5-----5--5--5----|--7-----x--7--x--7--7-----7-----x-------|--7-----x--7--x--7-----7-----7--7--7----|
  |--5-----x--5--x--5-----5-----5--5--5----|--7-----x--7--x--7--7-----7-----x-------|--7-----x--7--x--7-----7-----7--7--7----|
  |----------------------------------------|----------------------------------------|----------------------------------------|



     Q     E  E  E  E  Q     Q     Q          Q     E  E  E  Q     Q     E  E  E       Q     E  E  E  E  Q     Q     Q
  |-(8)------(8)---(8)(8)---(8)------------|-(8)------(8)---(8)---(8)---(8)(8)(8)---|-(5)------(5)---(5)(5)---(5)------------|
  |--6-----x--6--x--6--6-----6-----x-------|--6-----x--6--x--6-----6-----6--6--6----|--5-----x--5--x--5--5-----5-----x-------|
  |--7-----x--7--x--7--7-----7-----x-------|--7-----x--7--x--7-----7-----7--7--7----|--6-----x--6--x--6--6-----6-----x-------|
  |--5-----x--5--x--5--5-----5-----x-------|--5-----x--5--x--5-----5-----5--5--5----|--7-----x--7--x--7--7-----7-----x-------|
  |--5-----x--5--x--5--5-----5-----x-------|--5-----x--5--x--5-----5-----5--5--5----|--7-----x--7--x--7--7-----7-----x-------|
  |----------------------------------------|----------------------------------------|----------------------------------------|



     Q     E  E  E  Q     Q     E  E  E       
  |-(5)------(5)---(5)---(5)---(5)(5)(5)---|
  |--5-----x--5--x--5-----5-----5--5--5----|
  |--6-----x--6--x--6-----6-----6--6--6----|
  |--7-----x--7--x--7-----7-----7--7--7----|
  |--7-----x--7--x--7-----7-----7--7--7----|
  |----------------------------------------|








Login or Register to remove this ad.

4 comments on Red Like Roses

That seems like a lot of work man.

5

Thanks much.

This piece was well worth the

This piece was well worth the time and effort, glad you liked it ^^

God, i love ya.

5

God, i love ya.

Amazing work on it

5

You did a great job!
Don't know if you'd be willing to try, but could you do From Shadows too.