Ads

Tactics (Rurouni Kenshin) Guitar Tab

Submitted: Aug 09, 2015 by JordanVS

5
Average: 5 (4 votes)
Download | Listen
Game: Rurouni Kenshin
Composer(s): Noriyuki Asakura
Style: Arrangement, Fingerstyle

This song is also called Ending Theme 1

AutoScroll: Slow | Medium | Fast
Tactics                                                         
Rurouni Kenshin 
1st Ending
The Yellow Monkey
JordanVS

Tempo : 110 ~ 4/4

                                                           ^                                                   
     E  E  E  E  E  E  E  E     E  E  E  E  E  E  E  E     E  E  E  E  E  E  E  E     E  E  E  E  E  E  E  E   
E||--------------------------|--------------------------|--0-----------------------|--------------------------|
B||--------0-----------0-----|--------2-----------1-----|--0-----0-----------0-----|--------2-----------1-----|
G||-----0-----0-----0-----0--|-----2-----2-----2-----2--|--0--0-----0-----0-----0--|-----2-----2-----2-----2--|
D||--2-----------2-----------|--2-----------2-----------|--2-----------2-----------|--2-----------2-----------|
A||--------------------------|--------------------------|--------------------------|--------------------------|
E||--------------------------|--------------------------|--------------------------|--------------------------|


    Q    E  S S S S E  E  S S    Q    E  S S S S E  E  S S       E  E  E  S S E  E  E  E   
|---0----0--0-0-0-0-0--0--0-0-|--0----0--0-0-0-0-0--0--0-0--||---0-----3--0-7-L-----5--3--|
|---0----0--0-0-0-0-0--0--0-0-|--2----2--2-2-2-2-1--1--1-1--||----------------------------|
|*--0----0--0-0-0-0-0--0--0-0-|--2----2--2-2-2-2-2--2--2-2-*||*-----0------------0--------|
|*--2----2--2-2-2-2-2--2--2-2-|--2----2--2-2-2-2-2--2--2-2-*||*---------------------------|
|---2----2--2-2-2-2-2--2--2-2-|--0----0--0-0-0-0-0--0--0-0--||----------------------------|
|---0----0--0-0-0-0-0--0--0-0-|-----------------------------||---0------------0-----------|


                                    ^                                                                    
  E  E  E  S S E  E  S  S  S S  4x  W                   H        Q    E  E     E  E  E  S S E  E  E  E   
--5-----5--3-5-L-----5h-7p-5-3--||--0----------------|--L-------------------|--0------------------------|
-----2--------------------------||--0----------------|--L----------------0--|-------------0-------------|
------------------5------------*||--0----------------|--L-------------------|--------0--0------------0--|
-------------------------------*||--2----------------|--L-------------------|---------------------2-----|
--0------------0----------------||--2----------------|--L--------x----------|-----2------------2--------|
--------------------------------||--0----------------|--L--------x----------|--0------------0-----------|


  E  E  E  S  S E  E  E  E     E  E  E  S S E  E  E  E     E  E  E  S  S E  E  E  E     E  E  E  S S E  E  E  E   
----------------------------|--0------------------------|----------------------------|--0------------------------|
-------------------------0--|-------------0-------------|-------------------------0--|-------------0-------------|
--2-----2--0h-2-------2-----|--------0--0------------0--|--2-----2--0h-2-------2-----|--------0--0------------0--|
-----2-------------2--------|---------------------2-----|-----2-------------2--------|---------------------2-----|
--0-------------0-----------|-----2------------2--------|--0-------------0-----------|-----2------------2--------|
----------------------------|--0------------0-----------|----------------------------|--0------------0-----------|


  E  E  E  E  Q    E  E     E  E  E  E  E  E  E  E     E  E  E  E  E  E  Q       E  E  E  S S E  E  E  E   
-------------------------|--------------------------|-------------------------|--0------------------------|
-------------------------|--------0--1--0-----------|--------------0----------|-------------0-------------|
--3--3--3--0-------------|--0--2-----------2--0--2--|--0--------0-----0-------|--------0--0------------0--|
--------------4----2--4--|--2-----------1-----------|--------0----------------|---------------------2-----|
--------------2----------|--3-----------3-----------|-----2--------------x----|-----2------------2--------|
--2----------------------|--------------------------|--3-----------------x----|--0------------0-----------|


  E  E  E  S  S E  E  E  E     E  E  E  S S E  E  E  E     E  E  E  S S E  E  E  E     E  E  E  S S E  E  E  E   
----------------------------|--0------------------------|---------------------------|--0------------------------|
-------------------------0--|-------------0-------3--3--|--2-----2--2-1----------0--|-------------0-------------|
--2--2--2--0h-2-------2-----|--------0--0---------------|---------------------2-----|--------0--0------------0--|
-------------------2--------|---------------------------|-----2------------2--------|---------------------2-----|
--0-------------0-----------|-----2------------2--------|--0------------0-----------|-----2------------2--------|
----------------------------|--0------------0-----------|---------------------------|--0------------0-----------|


  E  E  E  E  Q    E  E     E  E  E  E  E  E  E  E     E  E  E  E  E  E  Q       E  E  E  S S E  E  E  E   
-------------------------|--------------------------|-----------------3-------|---------------------------|
-------------------------|--------0--1--0-----------|--------------0----------|---------------------0--1--|
--3--3--3--0-------------|--0--2-----------2--0--2--|--0--------0-------------|--2--2--2--2-2----2--------|
--------------4----2--4--|--2-----------1-----------|--------0----------------|--2------------------------|
--------------2----------|--3-----------3-----------|-----2--------------x----|--0------------0-----------|
--2----------------------|--------------------------|--3-----------------x----|---------------------------|


  E  E  E  S S E  E  E  E     E  E  E  S S E  E  E  E     E  E  E  S S E  E  E  E     E  E  E  S S E  E  E  E   
---------------------------|---------------------------|---------------------------|---------------------------|
--0------------------------|---------------------0--1--|--0------------------------|---------------------0--1--|
-------------0----------0--|--2--2--2--2-2----2--------|-------------0----------0--|--2--2--2--2-2----2--------|
-----2--2--2---------2-----|--2------------------------|-----2--2--2---------2-----|--2------------------------|
------------------2--------|--0------------0-----------|------------------2--------|--0------------0-----------|
--0------------0-----------|---------------------------|--0------------0-----------|---------------------------|


  E  E  E  S S E  E  E  E     E  E  E  E  E  E  E  E     E  E  E  E  Q    Q       E  E  E  S S E  E  E  E   
---------------------------|--------------------------|------------------------|--0-----0----0----------3--|
--0------------------------|--------------------------|--0--0--0--2--4---------|-----3-----3------0--------|
-------------0----------0--|--3--3--3--3--3--3--1--3--|--------------4---------|--0------------------------|
-----2--2--2---------2-----|--------------------------|------------------------|---------------------2-----|
------------------2--------|--------------------------|--2-----------2----x----|---------------2-----------|
--0------------0-----------|--2-----------2-----2-----|-------------------x----|--0------------------------|


  E  E  E  E  E  E  E  E     E  E  E  S S E  E  E  E     E  E  E  E  E  E  E  E     E  E  E  S S E  E  E  E   
--2--0-----0--------------|--0-----0----0----------3--|--2--0-----0--------------|---------------------------|
--2-----3--------------1--|-----3-----3------0--------|--2-----3--------1-----0--|--3-----3--3-1----0-----0--|
--------------------2-----|--0------------------------|--------------------2-----|--0------------------0-----|
-----------------2--------|---------------------2-----|-----------------2--------|-----0---------------------|
--0-----------0-----------|---------------2-----------|--0-----------0-----------|---------------------------|
--------------------------|--0------------------------|--------------------------|--3------------3-----------|


                              ^                                                                                
  E  E  E  E  E  S S E  E     E  E  E  E  E  S S E  E     E  E  E  E  E  E  E  E     E  E  E  S S E  E  E  E   
---------------------------|--0--0--0--0---------------|--------------------------|--0-----0----0----------3--|
--3--3--3--3---------------|--1-----------3--1-1-------|--4--4--4--5--4--------4--|-----3-----3------0--------|
--------------5----4-------|--0------------------0-----|--------------------4-----|--0------------------------|
--4--------------4---4-----|------------------------2--|-----------------4--------|---------------------2-----|
--2---------------------2--|--3-----------3------------|--2-----------2-----------|---------------2-----------|
---------------------------|---------------------------|--------------------------|--0------------------------|


  E  E  E  E  E  E  E  S S    E  E  E  S S E  E  E  E     E  E  E  E  E  E  E  E     E  E  E  S S S S E  E  E   
--2--0-----0---------------|--0-----0----0----------3--|--2--0-----0--------------|----------------------------|
--2-----3--------1-----0-0-|-----3-----3------0--------|--2-----3--------1-----0--|--3-----3--3-1---0-0-----0--|
--------------------2------|--0------------------------|--------------------2-----|--0-------------------0-----|
-----------------2---------|---------------------2-----|-----------------2--------|-----0----------------------|
--0-----------0------------|---------------2-----------|--0-----------0-----------|----------------------------|
---------------------------|--0------------------------|--------------------------|--3------------3------------|


                              ^                                                                                 
  E  E  E  E  E  S S E  E     E  E  E  E  E  S S E  E     E  E  E  E  E  E  E  S S    E  E  E  S S E  E  E  E   
---------------------------|--0--0--0--0---------------|---------------------------|--0-----3--0-7-L-----5--3--|
--3--3--3--3---------------|--1-----------3--1-1-------|--4--4--4--5--4------------|---------------------------|
--------------5----4-4-----|--0------------------0-----|-----------------4--4--2-0-|--L--0------------0--------|
--4--------------4---------|------------------------2--|---------------------------|---------------------------|
--2---------------------2--|--3-----------3------------|--2-----------2------------|---------------------------|
---------------------------|---------------------------|---------------------------|--0------------0-----------|


  E  E  E  S S E  E  S  S  S S    E  E  E  S S E  E  E  E     E  E  E  S S E  E  E  E     E  E  E  S S E  E  E  E   
--5-----5--3-5-L-----5h-7p-5-3-|--0-----3--0-7-L-----5--3--|--5-----5--3-5-------------|--0------------------------|
-----2-------------------------|---------------------------|-----2------------------0--|-------------0-------------|
------------------5------------|-----0------------0--------|---------------------2-----|--------0--0------------0--|
-------------------------------|---------------------------|------------------2--------|---------------------2-----|
--0------------0---------------|---------------------------|--0------------0-----------|-----2------------2--------|
-------------------------------|--0------------0-----------|---------------------------|--0------------0-----------|


  E  E  E  S  S E  E  E  E     E  E  E  S S E  E  E  E     E  E  E  S  S E  E  E  E     E  E  E  S S E  E  E  E   
----------------------------|--0------------------------|----------------------------|--0------------------------|
-------------------------0--|-------------0-------------|-------------------------0--|-------------0-------------|
--2-----2--0h-2-------2-----|--------0--0------------0--|--2-----2--0h-2-------2-----|--------0--0------------0--|
-----2-------------2--------|---------------------2-----|-----2-------------2--------|---------------------2-----|
--0-------------0-----------|-----2------------2--------|--0-------------0-----------|-----2------------2--------|
----------------------------|--0------------0-----------|----------------------------|--0------------0-----------|


                                                                      ^    ^                                      
                                                                                                      |--3--|     
  E  E  E  E  Q    E  E     E  E  E  E  E  E  E  E     E  E  E  Q     E.   E.      Q     Q     S S E  S  S  S E   
-------------------------|--------------------------|----------------10---10---|--10----10----10-----------------|
-------------------------|--------0--1--0-----------|----------------12---12---|--12----12----10-8----8h-9p-8----|
--3--3--3--0-------------|--0--2-----------2--0--2--|--0--------0----12---12---|--12----12---------9----------9--|
--------------4----2--4--|--2-----------1-----------|--------0-----------------|---------------------------------|
--------------2----------|--3-----------3-----------|-----2--------------------|---------------------------------|
--2----------------------|--------------------------|--3-----------------------|---0-----0-----0------0----------|


  S  S S  S  E  S  S S  S E  S S E     S S  S S S S S S S S S S S S S S    S  S E  E  E  E  E  E  S  S  
--9-10-9--------9-10-9--------------|----2p-0---0-----------------------|------------------------------|
---------12-10---------12-----------|-------------2---3-----2-----0-----|----------------0--3--0-------|
--------------------------9--9-7-6--|--0------0---------0-----0-----0---|--2p-0----0--2-----------2p-0-|
------------------------------------|---------------2-----2-----0-----0-|-------2----------------------|
--0----------0-------0-------0------|-----------------------------------|--0-------0-----0-----0-------|
------------------------------------|--0--------0-------0-------0-------|------------------------------|


  E  E  Q    S E.  E  E     E  E  E  E  E  E  E  E     E  E  E  E  E  E  E  S  S    E  E  E  E  E  E  E  E   
-------------3-----------|-----------2--------------|----------------------------|-----------------3--------|
--------0----3-----------|--------2-----5--4--------|----------------------------|--------------3-----3-----|
-----0---------4---2--0--|-----3--------------4-----|--0-----2--0--3--3-----0h-2-|--0--------0-----------0--|
--2----------------------|--4--------------------4--|-----2--------------0-------|--------0-----------------|
-------------------------|--------------2-----------|--3-------------------------|-----2--------------------|
--0-----0----0-----0-----|--2-----------------------|--------------3-------------|--3-----------------------|


  E  E  E  S S E  E  E  E     E  E  E  S S E  E  E  E     E  E  E  S S E  E  E  E     E  E  E  S S E  E  E  E   
---------------------------|---------------------------|---------------------------|---------------------------|
---------------------0--1--|--0------------------------|---------------------0--1--|--0------------------------|
--2--2--2--2-2----2--------|-------------0----------0--|--2--2--2--2-2----2--------|-------------0----------0--|
--2------------------------|-----2--2--2---------2-----|--2------------------------|-----2--2--2---------2-----|
--0------------0-----------|------------------2--------|--0------------0-----------|------------------2--------|
---------------------------|--0------------0-----------|---------------------------|--0------------0-----------|


  E  E  E  S S E  E  E  E     E  E  E  S S E  E  E  E     E  E  E  E  E  E  E  E     E  E  E  E  Q    Q     
---------------------------|---------------------------|--------------------------|------------------------|
---------------------0--1--|--0------------------------|--------------------------|--0--0--0--2--4---------|
--2--2--2--2-2----2--------|-------------0----------0--|--3--3--3--3--3--3--1--3--|--------------4---------|
--2------------------------|-----2--2--2---------2-----|--------------------------|------------------------|
--0------------0-----------|------------------2--------|--------------------------|--2-----------2----x----|
---------------------------|--0------------0-----------|--2-----------2-----2-----|-------------------x----|


  E  E  Q    E.  E.  E     E  E  E  S S E  Q    E     E  E  E  E  E  E  E  E     E  E  E  S S E  E  E  E   
------------------------|-----------------------3--|--2--0-----0--------------|--0-----0----0----------3--|
------------------------|--5--3--5--3-5-L----------|--2-----3-----------1-----|-----3-----3------0--------|
-----------------2---3--|--4---------------4-------|--2--------------2-----2--|--0------------------------|
--4--4-------4---0---1--|--2-----------------------|--------------2-----------|---------------------2-----|
--2--2-------2----------|--------------------------|--------------------------|---------------2-----------|
------------------------|--------------------------|--------------------------|--0------------------------|


                                                                                     ^                         
  E  E  E  E  E  E  E  E     E  E  E  S S E  E  E  E     E  E  E  E  E  S S E  E     E  E  E  E  E  S S E  E   
--2--0-----0--------------|---------------------------|---------------------------|--0--0--0--0---------------|
--2-----3--------1-----0--|--3-----3--3-1----0-----0--|--3--3--3--3---------------|--1-----------3--1-1-------|
--------------------2-----|--0------------------0-----|--------------5----4-------|--0------------------0-----|
-----------------2--------|-----0---------------------|--4--------------4---4-----|------------------------2--|
--0-----------0-----------|---------------------------|--2---------------------2--|--3-----------3------------|
--------------------------|--3------------3-----------|---------------------------|---------------------------|


  E  E  E  E  E  E  E  E     E  E  E  S S E  E  E  E     E  E  E  E  E  E  E  S S    E  E  E  S S E  E  E  E   
--------------------------|--0-----0----0----------3--|--2--0-----0---------------|--0-----0----0----------3--|
--4--4--4--5--4--------4--|-----3-----3------0--------|--2-----3--------1-----0-0-|-----3-----3------0--------|
--------------------4-----|--0------------------------|--------------------2------|--0------------------------|
-----------------4--------|---------------------2-----|-----------------2---------|---------------------2-----|
--2-----------2-----------|---------------2-----------|--0-----------0------------|---------------2-----------|
--------------------------|--0------------------------|---------------------------|--0------------------------|


                                                                                      ^                         
  E  E  E  E  E  E  E  E     E  E  E  S S S S E  E  E     E  E  E  E  E  S S E  E     E  E  E  E  E  S S E  E   
--2--0-----0--------------|----------------------------|---------------------------|--0--0--0--0---------------|
--2-----3--------1-----0--|--3-----3--3-1---0-0-----0--|--3--3--3--3---------------|--1-----------3--1-1-------|
--------------------2-----|--0-------------------0-----|--------------5----4-4-----|--0------------------0-----|
-----------------2--------|-----0----------------------|--4--------------4---------|------------------------2--|
--0-----------0-----------|----------------------------|--2---------------------2--|--3-----------3------------|
--------------------------|--3------------3------------|---------------------------|---------------------------|


  E  E  E  E  E  E  E  S S    E  E  E  S S E  E  E  E     E  E  E  S S E  E  E  S S    E  E  E  S S E  E  E  E   
---------------------------|--0------------------------|----------------------------|--0------------------------|
--4--4--4--5--4------------|-------------0-L-----------|-----0--0--0-0-L--0--0--0-0-|--L----------0-L-----------|
-----------------4--4--2-0-|--L-----0------------2--0--|----------------------------|--------0------------2--0--|
---------------------------|-----------2------2--------|----------------------------|-----------2------2--------|
--2-----------2------------|-----2---------------------|-----4------------3---------|-----2---------------------|
---------------------------|--0------------0-----------|--5------------5------------|--0------------0-----------|


  E  E  E  S S E  E  E  S S    E  E  E  S S E  E  E  E     E  E  E  S S E  E  E  S S    E  E  E  S S E  E  E  E   
----------------------------|--0------------------------|----------------------------|--0------------------------|
-----0--0--0-0-L--0--0--0-0-|--L----------0-L-----------|-----0--0--0-0-L--0--0--0-0-|--L----------0-L-----------|
----------------------------|--------0------------2--0--|----------------------------|--------0------------2--0--|
----------------------------|-----------2------2--------|----------------------------|-----------2------2--------|
-----4------------3---------|-----2---------------------|-----4------------3---------|-----2---------------------|
--5------------5------------|--0------------0-----------|--5------------5------------|--0------------0-----------|


                              ^                                                       ^                         
  E  E  E  S S E  E  E  E     E  E  E  S S E  E  E  E     E  E  E  S S E  E  E  E     E  E  E  S S E  E  E  E   
---------------------------|--0------------------------|---------------------------|--0------------------------|
-----3--3--3-3-L--3--3--3--|--0----------0-L--------3--|-----3--3--3-3-L--3--3--3--|--0----------0-L--------3--|
---------------------------|--0-----0------------2-----|---------------------------|--0-----0------------2-----|
---------------------------|-----------2------2--------|---------------------------|-----------2------2--------|
-----4------------3--------|-----2---------------------|-----4------------3--------|-----2---------------------|
--5------------5-----------|--0------------0-----------|--5------------5-----------|--0------------0-----------|


                              ^                                                       ^                         
  E  E  E  S S E  E  E  E     E  E  E  S S E  E  E  E     E  E  E  S S E  E  E  E     E  E  E  S S E  E  E  E   
---------------------------|--0------------------------|---------------------------|--0----------L----0--0-----|
-----3--3--3-3-L--3--3--3--|--0----------0-L--------3--|-----3--3--3-3-L--3--3--3--|--0----------0-L-----------|
---------------------------|--0-----0------------2-----|---------------------------|--0-----0------------2--0--|
---------------------------|-----------2------2--------|---------------------------|-----------2------2--------|
-----4------------3--------|-----2---------------------|-----4------------3--------|-----2---------------------|
--5------------5-----------|--0------------0-----------|--5------------5-----------|--0------------0-----------|


  ^                                                                                                                     
  E  E  E  S S E  E  S  S  S S    E  E  E  S S E  E  E  E     E  E  E  S S E  E  S  S  S S    E  E  E  S S E  E  E  E   
--0-----0--0-L----0--0---------|--0-----3--0-7-L-----5--3--|--5-----5--3-5-L-----5h-7p-5-3-|--0-----3--0-7-L-----5--3--|
--2----------------------------|---------------------------|-----2-------------------------|---------------------------|
--2-----2--0-2-L-----2h-4p-2-0-|-----0------------0--------|------------------5------------|-----0------------0--------|
-----2------------2------------|---------------------------|-------------------------------|---------------------------|
--0------------0---------------|---------------------------|--0------------0---------------|---------------------------|
-------------------------------|--0------------0-----------|-------------------------------|--0------------0-----------|


  E  E  E  S S E  E  S  S  S S    E  E  E  S S E  E  E  E     E  E  E  S S E  E  S  S  S S    E  E  E  S S E  E  E  E   
--5-----5--3-5-L-----5h-7p-5-3-|--0-----3--0-7-L-----5--3--|--5-----5--3-5-L-----5h-7p-5-3-|--0-----3--0-7-L-----5--3--|
-----2-------------------------|---------------------------|-----2-------------------------|---------------------------|
------------------5------------|-----0------------0--------|------------------5------------|-----0------------0--------|
-------------------------------|---------------------------|-------------------------------|---------------------------|
--0------------0---------------|---------------------------|--0------------0---------------|---------------------------|
-------------------------------|--0------------0-----------|-------------------------------|--0------------0-----------|


                                 ^                                      
                     |--3--|                                            
  E  E  E  S S E  E  E  E  E     W                   W                  
--5-----5--3-5-L-----7--5--3--|--0----------------|--L----------------||
-----2------------------------|--0----------------|--L----------------||
------------------5-----------|--0----------------|--L----------------||
------------------------------|--2----------------|--L----------------||
--0------------0--------------|--2----------------|--L----------------||
------------------------------|--0----------------|--L----------------||




Duration Legend
---------------
W - whole
H - half
Q - quarter
E - 8th
S - 16th
T - 32nd
X - 64th
. - note dotted
|-n-|  - n-tuplets


Tablature Legend
----------------
L - tied note
x - dead note
g - grace note
h - hammer on
p - pull off
S - shift slide
s - legato slide
^ - brush up
v - brush down
Login or Register to remove this ad.

1 comment on Tactics

This is pure gold. Can't

5

This is pure gold. Can't believe I haven't seen this before. Excelent work!