Ads

Sobakasu (Rurouni Kenshin) Guitar Tab

Submitted: Mar 15, 2011 by 60NCA10

5
Average: 5 (3 votes)
Download | Listen
Game: Rurouni Kenshin
Composer(s): Noriyuki Asakura
Style: Arrangement, Artificial harmonics, Fingerstyle

This song is also called Freckles

Click here for a video example.

AutoScroll: Slow | Medium | Fast



                         RUROUNI KENSHIN
                  "Sobakasu (a.k.a: Freckles)"


                 Original song by: Judy and Mary

                  Fingerstyle Arrangement by:
                        Gonçalo Martins
                       January 18th 2008




Verse 1:

     Q    E  Q    E     Q    E  Q    E     Q    E  Q    E     Q    E  Q    E   
E||-------0--0----0--|--4----4--5----5--|------------------|--4----4--5----5--|
B||------------------|------------------|--6----6--6----6--|------------------|
G||------------------|------------------|------------------|------------------|
D||------------------|------------------|------------------|------------------|
A||--0-------0-------|--0-------0-------|--4-------4-------|--4-------4-------|
E||------------------|------------------|------------------|------------------|


  Q    E  Q    E     Q    E  Q    E     Q    E  Q    E      Q     E  Q    E   
--2----2--2----2--|--4----4--5----5--|--8----8--7----7--|--------------------|
------------------|------------------|------------------|--10----------------|
------------------|------------------|------------------|--------10-------9--|
--0-------0-------|--0-------0-------|------------------|--------------------|
------------------|------------------|--8-------8-------|---8--------8-------|
------------------|------------------|------------------|--------------------|


  Q.     Q    E     Q    E  Q    E     Q    E  Q    E     Q.     Q.      
-----------------|------------------|--7----7--5----5--|--4------5------|
--------------7--|-------9--9----9--|------------------|----------------|
---------9-------|------------------|------------------|----------------|
-----------------|------------------|--4-------4-------|--4------4------|
-----------------|------------------|------------------|----------------|
--9------9-------|--9-------9-------|------------------|----------------|


  Q    E  Q    E     Q    E  Q    E     Q    E  Q    E     Q.     Q.      
------------------|--2----2--5----5--|--9----9--7----7--|---------0------|
-------3--3----3--|------------------|------------------|--9-------------|
------------------|------------------|------------------|----------------|
--0-------0-------|--0-------0-------|------------------|----------------|
------------------|------------------|--7-------7-------|--7------7------|
------------------|------------------|------------------|----------------|




Verse 2:

  Q    E  Q    E     Q    E  Q    E     Q    E  Q    E     E  E  E  Q    E   
-------0--0----0--|--4----4--5----5--|------------------|--4--4--4--5----5--|
------------------|------------------|--6----6--6----6--|-------------------|
------------------|------------------|------------------|-------------------|
------------------|------------------|------------------|-------------------|
--0-------0-------|--0-------0-------|--4-------4-------|--4--------4-------|
------------------|------------------|------------------|-------------------|


  Q    E  Q    E     Q    E  Q    E     Q    E  Q     E     Q    E  Q    E   
--2----2--2----2--|--4----4--5----5--|--8----8--7--------|---------------0--|
------------------|------------------|---------------10--|-------6----------|
------------------|------------------|-------------------|------------------|
--0-------0-------|--0-------0-------|-------------------|------------------|
------------------|------------------|--8-------8--------|--8-------8-------|
------------------|------------------|-------------------|------------------|


  Q.     Q.        Q.     Q.        Q.     Q    E     Q.     Q.      
---------0------|--2------4------|--7------5----5--|--4------5------|
----------------|----------------|-----------------|----------------|
----------------|----------------|-----------------|----------------|
----------------|----------------|--4------4-------|--4------4------|
--4------4------|--4------4------|-----------------|----------------|
----------------|----------------|-----------------|----------------|


  Q.     Q.        Q.     Q.        Q.     Q    E     Q.     Q.      
----------------|--2------5------|--5------4----4--|--2------4------|
---------3------|----------------|-----------------|----------------|
----------------|----------------|-----------------|----------------|
--0------0------|--0------0------|--2------2-------|--2------2------|
----------------|----------------|-----------------|----------------|
----------------|----------------|-----------------|----------------|


  Q.     Q.        Q    E  Q.        Q.     Q.        H.            
--5-------------|-----------------|----------------|---------------|
----------------|-----------------|----------------|---------------|
----------------|-----------------|--x-------------|---------------|
----------------|-----------------|--x------4------|--4------------|
--0------0------|--0----0--0------|--x------0------|--0------------|
----------------|-----------------|----------------|---------------|




Pre-Chorus:

  Q.     Q.        Q.     Q.        Q.     Q.        Q.     Q    E   
---------4------|--4------0------|--0-------------|--0------2----2--|
----------------|----------------|---------2------|-----------------|
----------------|---------1------|----------------|--1--------------|
----------------|--2-------------|---------2------|---------2-------|
--4------4------|----------------|--4-------------|-----------------|
----------------|----------------|----------------|-----------------|


  Q.     Q.        Q.     Q.        Q.     Q    E     Q.     Q.      
----------------|----------------|-----------------|----------------|
----------------|----------------|--3--------------|----------------|
----------------|---------2------|---------2----2--|----------------|
--0------0------|--4-------------|-----------------|--4------0------|
----------------|----------------|-----------------|----------------|
----------------|----------------|-----------------|----------------|


  Q.     Q.        Q.     Q.        Q.     Q.        Q.     Q    E   
---------4------|--4------0------|--0-------------|--4------5----5--|
----------------|----------------|---------2------|-----------------|
----------------|---------1------|----------------|-----------------|
----------------|--2-------------|---------2------|--6--------------|
--4------4------|----------------|--4-------------|---------7-------|
----------------|----------------|----------------|-----------------|


  Q.     Q.        Q.     Q.        Q.     Q.        Q    E  Q.      
----------------|----------------|--2------9------|--7----5---------|
----------------|----------------|--3-------------|-----------------|
----------------|---------2------|----------------|-----------------|
--0------0------|--4-------------|---------7------|--4-------0------|
----------------|----------------|----------------|-----------------|
----------------|----------------|----------------|-----------------|


  Q.     Q    E     Q.     Q.        Q.     Q    E     Q    E  Q.      
-----------------|--2------5------|--4------x----0--|--L-------0------|
---------3-------|----------------|--5------x----5--|--L-------5------|
---------2-------|----------------|--4------x----4--|--L----4---------|
--0-----------0--|----------------|-----------------|-----------------|
-----------------|----------------|-----------------|-----------------|
-----------------|----------------|-----------------|-----------------|


  Q.     Q    E     Q.     Q.        Q.     Q.        Q    E  Q.      
-----------------|--2------5------|--5-------------|-----------------|
---------3-------|----------------|----------------|-----------------|
---------2-------|----------------|----------------|-----------------|
--0-----------0--|----------------|--2------2------|--2----2--2------|
-----------------|----------------|----------------|-----------------|
-----------------|----------------|----------------|-----------------|




Chorus:

  Q.     Q.        Q.     Q.         Q.      Q     E     Q.     Q.      
--4-------------|--5------7------|---9------10-----9--|--L-------------|
----------------|----------------|--10------------10--|--L-------------|
----------------|----------------|--------------------|----------------|
--2-------------|----------------|--------------------|--L-------------|
----------------|--7------7------|---0----------------|----------------|
--0------0------|----------------|-----------------9--|--L------9------|


  H        E   E     Q.      Q.        Q.      Q    E     Q.     Q.      
--9--------L--10--|--L--------------|------------------|--7------9------|
------------------|--L------10------|--9------10----0--|----------------|
--9--------L------|-----------------|--9---------------|----------------|
------------------|--L--------------|------------------|----------------|
--0--------L------|-----------------|------------------|--7------7------|
---------------9--|--L-------9------|--9---------------|----------------|


   Q     Q    Q        Q.      E   Q       Q.     Q    E     Q.     Q.      
---9---------------|--------------------|---------2-------|--4------5------|
--10----10----x----|--10----------10----|---------3-------|----------------|
--------11----x----|--11----------11----|--------------2--|----------------|
-------------------|----------11--------|--0--------------|----------------|
---9---------------|--------------------|-----------------|----------------|
-------------------|--------------------|-----------------|----------------|


  Q.     Q    E     Q.     Q.        Q.     Q    E     Q.     Q.      
--4--------------|--4------5------|--7------7-------|---------5------|
--5------5----5--|--5-------------|-----------------|--7-------------|
---------6----6--|----------------|--7------7-------|--7------7------|
-----------------|----------------|--------------7--|----------------|
--4--------------|---------7------|-----------------|---------5------|
-----------------|----------------|--7--------------|----------------|




                  Chorus (Part 2):

  H        E  E     Q.     Q.         Q.      Q     E     Q.     Q.      
-----------------|--5------7------|---9------10-----9--|--L-------------|
--9--------L-----|----------------|--10------------10--|--L-------------|
--------------7--|----------------|--------------------|----------------|
-----------------|----------------|--------------------|--L-------------|
--7--------L-----|--7------7------|---0----------------|----------------|
-----------------|----------------|-----------------9--|--L------9------|


  H        E   E     Q.      Q.        Q.      Q    E     Q.     Q.      
--9--------L--10--|--L--------------|------------------|--7------9------|
------------------|--L------10------|--9------10----0--|----------------|
--9--------L------|-----------------|--9---------------|----------------|
------------------|--L--------------|------------------|----------------|
--0--------L------|-----------------|------------------|----------------|
---------------9--|--L-------9------|--9---------------|--7------7------|




                                         Ending:

   Q     Q    Q        Q.      E   Q       Q.     Q.        Q.     Q.      
---9---------------|--------------------|---------2------|--4------5------|
--10----10----x----|--10----------10----|----------------|----------------|
--------11----x----|--11----------11----|----------------|----------------|
-------------------|----------11--------|--0-------------|----------------|
---9---------------|--------------------|---------0------|---------0------|
-------------------|--------------------|----------------|--2-------------|


  Q.     Q    E     Q    E  Q.        Q.     Q    E     Q    E  Q    E   
--4--------------|-------0--2------|---------0----0--|--2----2--3----3--|
--------------4--|-----------------|-----------------|------------------|
-----------------|-----------------|-----------------|------------------|
-----------------|--1--------------|-----------------|------------------|
---------3-------|-----------------|--4--------------|------------------|
--4--------------|-----------------|---------4-------|--0-------4-------|


  Q.     Q    E     Q.     Q.        H         Q       Q    E  Q.      
--2-----------6--|---------9------|--9--------10----|--L-------2------|
-----------------|----------------|-----------------|-----------------|
-----------------|----------------|-----------------|-----------------|
-----------------|----------------|--0--------------|-------0---------|
-----------------|----------------|-----------------|----------2------|
--2------6-------|--9------9------|-----------------|-----------------|


  Q    E  Q.        Q    E  Q.        Q.     Q.        Q    E  Q.      
--5-------4------|--2-------4------|--5-------------|-----------------|
-----------------|-----------------|----------------|-----------------|
-----------------|-----------------|----------------|-----------------|
--0--------------|-----------------|----------------|-----------------|
-----------------|-----------------|--0------0------|--0----0--0------|
-------0---------|-------0---------|----------------|-----------------|


  Q.     Q.        Q    E  Q.        Q.     Q    E     Q.     Q.      
----------------|-----------------|--5-----------2--|---------5------|
----------------|-----------------|-----------------|----------------|
----------------|-----------------|-----------------|----------------|
----------------|-----------------|-----------------|----------------|
----------------|-----------------|-----------------|----------------|
--1------1------|--1----1--1------|--2------2-------|--2------2------|


  Q.     Q.        Q.     Q    E     Q.     Q.        Q.     Q    E   
--5-------------|--4------5----5--|--5-------------|-----------------|
---------5------|-----------------|----------------|-----------------|
----------------|-----------------|----------------|-----------------|
----------------|-----------------|----------------|-----------------|
----------------|-----------------|--5------5------|--5------5----5--|
--3------3------|--3------3-------|----------------|-----------------|


  Q.     Q.        Q.     Q.        Q.     Q.         Q.     Q.      
----------------|----------------|--0-------------|--10------9------|
----------------|----------------|----------------|-----------------|
----------------|----------------|----------------|-----------------|
----------------|----------------|----------------|-----------------|
----------------|----------------|----------------|-----------------|
--6------6------|--6------6------|--7------7------|---7------7------|


  Q.     Q.        Q.     Q.        Q.     Q.        Q.     Q.      
--7-------------|--9-------------|--5-------------|----------------|
----------------|----------------|----------------|----------------|
----------------|----------------|----------------|----------------|
----------------|----------------|----------------|---------2------|
--7------7------|---------7------|--0------0------|--0-------------|
----------------|--0-------------|----------------|----------------|


                    AH-------------------------------------------|
  H.                H.              H.              H.             
---------------|----5------------|--L------------|--L------------||
---------------|-----------------|---------------|---------------||
--2------------|-----------------|---------------|---------------||
---------------|-----------------|---------------|---------------||
---------------|-----------------|---------------|---------------||
---------------|-----------------|---------------|---------------||




Duration Legend
---------------
H - half
Q - quarter
E - 8th
. - note dotted


Tablature Legend
----------------
L - tied note
x - dead note
AH - artificial harmonic


Login or Register to remove this ad.