Ads

Himura Kenshin (Rurouni Kenshin) Guitar Tab

Submitted: Dec 01, 2007 by ajrock2000 (Last updated: Sep 26, 2009)

4.875
Average: 4.9 (8 votes)
Download | Listen
Game: Rurouni Kenshin
Composer(s): Noriyuki Asakura
Style: Arrangement, Fingerstyle, Transcription

AutoScroll: Slow | Medium | Fast
                                  HIMURA KENSHIN 
                         As recorded by Noriyuki Asakura
         (From the 2002 Album RUROUNI KENSHIN - THE ORIGINAL SOUNDTRACK)

Music by Noriyuki Asakura
Arranged by Henrique Augusto
Transcribed by ajrock2000

Gtr I (E A D G B E) - 'Untitled'

  Q=120
 4/4

     Q    E  Q    E  E  E     E  Q    E  E  E  Q       Q    E  Q    E  E  E   
E||------------------------|----------0-------------|------------------------|
B||--1------------1--------|--1--3-------3-----1----|--0------------0--------|
G||----------0-------0-----|------------------------|----------0-------0-----|
D||-------2-------------2--|------------------------|-------2-------------2--|
A||--3---------------------|--3-------------3-------|------------------------|
E||------------------------|------------------------|--0---------------------|


             |----3----|                                                     
  Q    E  E  Q    Q    Q       Q    E  Q    E  Q       E.  E.  E  Q    Q     
----------------------------|-----------------------|-------------1---------|
--0----------3----1----0----|---------------1-------|------0---1-------1----|
----------0-----------------|--2-------2-------2----|--2--------------------|
-------2--------------------|-------2---------------|-----------------------|
----------------------------|--0--------------------|-----------------------|
--0-------------------------|-----------------------|--1--------------------|


  Q    E  E  E  E  E  E     E  E  E  E  E  E  Q       Q    E  Q    E  E  E   
--0-------------1--0-----|-------------------------|------------------------|
----------1-----------3--|--3-----------3--1-------|---------------1--------|
-------0-----------------|--------0-----------0----|----------0-------0-----|
-------------------------|-----0-------------------|-------2-------------2--|
--3----------3-----------|-------------------------|--3---------------------|
-------------------------|--3--------3-------------|------------------------|


                                                               |----3----|     
  E  Q    E  E  E  Q       Q    E  Q    E  E  E     Q    E  E  Q    Q    Q     
----------0-------------|------------------------|----------------------------|
--1--3-------3-----1----|--0------------0--------|--0----------3----1----0----|
------------------------|----------0-------0-----|----------0-----------------|
------------------------|-------2-------------2--|-------2--------------------|
--3-------------3-------|------------------------|----------------------------|
------------------------|--0---------------------|--0-------------------------|


  Q    E  Q    E  Q       E.  E.  E  Q    Q       Q    E  E  E  E  E  E   
-----------------------|-------------1---------|--0-------------1--0-----|
---------------1-------|------0---1-------1----|----------1-----------3--|
--2-------2-------2----|--2--------------------|-------0-----------------|
-------2---------------|-----------------------|-------------------------|
--0--------------------|-----------------------|--3----------3-----------|
-----------------------|--1--------------------|-------------------------|


  E  E  E  E  E  E  E  E     Q    E  E  E  E  E  E     E  E  E  Q    E  Q     
--------------------------|-------------------------|------------------------|
--------------3--1--------|----------------------3--|--L--0------------------|
--------0-----------0-----|-------------------------|-----------1------------|
-----0-----------------0--|----------2--1--2--------|----------------2-------|
--------------------------|-------2-----------------|------------------------|
--3--------3--------------|--0----------------0-----|--------0----------0----|


  Q    E  E  E  E  E  E     E  E  Q    Q    Q       Q    E  E  E  Q.       
-------------------------|-----------------------|------------------------|
--1-------------3--0-----|------------------0----|------------------------|
----------2-----------2--|--------2----2---------|--5-------------5S------|
-------2-----------------|-----2-----------------|----------6-------------|
--0----------0-----------|-----------------------|-------6----------------|
-------------------------|--3--------------------|--4----------4----------|


  Q    E  E   E  E.  E.     Q    E  E  Q    E  E     E  E  H.            
-------------------------|------------------------|---------------------|
-------------------------|------------------------|---------------------|
--7-------5s--3--3---1---|---------------------4--|--L--6--6------------|
-------------------------|--5-------5----------5--|--L--7--7------------|
-------------------------|-------5-------------5--|--L--7--7------------|
--6----6-----------------|--3----------3----3-----|---------------------|


  Q    E  Q    E  E  E     Q    E  Q    E  E  E     Q    E  Q    E  E  E   
------------------------|------------------------|------------------------|
---------------1--------|--0------------0--------|--3-------1-------------|
----------0-------0-----|----------1-------1-----|-------2-------------2--|
-------2-------------2--|-------2-------------2--|------------------2-----|
--3---------------------|------------------------|--0-------0----0--------|
------------------------|--0---------------------|------------------------|


  E  E  E  E  Q    E  E     Q    E  Q    E  E  E     E.  E.  E  E  E  E  E   
-------------------------|------------------------|-------------------------|
-----1-----0-------------|------------------------|-------------------------|
--L-----2----------2-----|--0---------------------|------0---2--0-----------|
----------------------0--|-------3--3----------3--|--3----------------3-----|
-------------------------|------------------3-----|----------------------3--|
--------------3----------|--1------------1--------|--1-------------1--------|


  Q    E  E  E  E  E  E     E  E  E  E  E  E  Q       Q    E  Q    E  E  E   
-------------------------|-------------------------|------------------------|
-------------------------|--------------------0----|--1------------1--------|
-------------------------|--------------0----------|----------0-------0-----|
--2-------2-----3--2--0--|--------0----------------|-------2-------------2--|
--3----3-----3-----------|-----2-------------------|--3---------------------|
-------------------------|--3--------3-----3-------|------------------------|


  Q    E  Q    E  E  E     Q    E  Q    E  E  E     E  E  E  E  Q    E  E   
------------------------|------------------------|-------------------------|
--0------------0--------|--3-------1-------------|-----1-------------------|
----------1-------1-----|--2----2--2----------2--|--L-----2-----2----2--0--|
-------2-------------2--|--2-------2-------2-----|-------------------------|
------------------------|--0-------0----0--------|-------------------------|
--0---------------------|------------------------|-----------0--3----------|


                                                          ^                 
  Q    E  Q    Q    E     E  S  S Q    E.  E.  S  S    E  H.           E    
-----------------------|----------------------------|---------------------||
-----------------------|----------------------------|---------------------||
--0--------------------|----------------------------|---------------------||
-------3--3----2----2--|--L--3p-2-0----3---3---3p-2-|--L------------------||
-----------------------|----------------------------|-----3------------L--||
--1--------------------|----------------------------|---------------------||



Login or Register to remove this ad.

12 comments on Himura Kenshin

This is a tabbed version of

This is a tabbed version of the youtube video located here...

http://youtube.com/watch?v=HQBYuehlh_Y

I hope the guy doesn't mind me making a tab. I personally think his version is a lot better than the original...This song is very sweet, and is not hard to play at all! Enjoy! :)

Awesome. I'm sure he won't

Awesome. I'm sure he won't mind that you made a tab :)

so its e a d g b e ?

so its
e
a
d
g
b
e ?

You nailed it. Or least

You nailed it. Or least that youtube guy's version.
Although he made three rather large mistakes, which told me he couldn't figure those parts of the song out.
Still good though.

Great tab!! Thanks! Easy to

Great tab!! Thanks!

Easy to play and great song ;)

Hey can u give me the

Hey can u give me the fingerholds (chords) for this song?
I have a hard time putting my fingers on different frets and was wondering if u could give me the different chords u use to play this song.

This is a very beautifully

5

This is a very beautifully tabbed song. I'm very excited to play this. The fingerings are pretty easy, but I just started to play guitar, so it's hard enough for me that I can learn a lot from it. This song always makes me a little nostalgic, too. -^ ^-

Great job.

Nix: The chords are very

Nix: The chords are very simple...C, E, Am, F, and some other variations..

I just uploaded a gp5 version with some minor changes I had sitting on my computer for a long time.

something to ask...

5

hi im new in this and i dont want sound like a stupid but i have a question about your tab.
what does mean that *L* in your tab? i really lve this song and when i see that part that i didnt understand... well i got sad XD plese i hope you can understand my english its a little bad.

Silverius

Silverius009 said hi im new

Silverius009 said

hi im new in this and i dont want sound like a stupid but i have a question about your tab.
what does mean that *L* in your tab? i really lve this song and when i see that part that i didnt understand... well i got sad XD plese i hope you can understand my english its a little bad.

Silverius

The 'L' means 'Let Ring' which means that.. you have to let ring the note before the 'L', easy :)

easier version request

4

Hey is okey if i tab a easier version of this song?
Sum people may find this song hard to play
(im am one of sum people:P)

Nice Tab

5

I think you got it as close as it needs to be. I do like this guys version alot better than the original too