Ads

Autumn (Rune Factory) Guitar Tab

Submitted: Jul 14, 2012 by auriplane (Last updated: Jul 14, 2012)

5
Average: 5 (3 votes)
Download | Listen
Game: Rune Factory
Composer(s): Tomoyo Morita
Style: 2 or more instruments, Alternate picking, Fingerstyle, Transcription
Series: Harvest Moon

AutoScroll: Slow | Medium | Fast
                                     Rune Factory - Autumn GUITAR TAB
                                         Composed by Tomoko Morita

                                   Tabbed by auriplane ([email protected])




This is a transcription for three guitars.  The first guitar plays the actual guitar part from the original
song; the others play the wind parts, and are more suited to electric guitar as they go pretty high up.  If
you want to play them on acoustic too, I'd play it an octave down.

There's one last thingy I didn't transcribe, which is a bouncy octave thingy around 1:04 and 1:11.  It plays
again at 1:20 and 1:26.  It plays the note B, which you can do by hammering-on and pulling-off the B string,
at fret 12.

There's a GP5 and PDFs with sheet music if you prefer that to these little text tabs.

Standard tuning.



                                           1ST GUITAR - GUITAR PART

e |------------|------0-----|------------|------2-----|
B |------1-----|----3---3---|------1-----|----3---3---|
G |----0---0---|--2-------2-|----0---0---|--2-------2-|
D |--2-------2-|0-----------|--2-------2-|0-----------|
A |0-----------|------------|0-----------|------------|
E |------------|------------|------------|------------|

                                                    e |------------|------0-----|------------|------------| \
                                                    B |------1-----|----3---3---|------1-----|3-----------|  \
                                                    G |----0---0---|--2-------2-|----0---0---|2-----------|   |
                                                    D |--2-------2-|0-----------|--2-------2-|4-----------|   |
                                                    A |0-----------|------------|0-----------|5-----------|   |
                                                    E |------------|------------|------------|------------|   |
                                                                                                              | x2
e |------------|------0-----|------------|------2-----|------0-----|------0-----|------2-----|------------|   |
B |------1-----|----3---3---|------1-----|----3---3---|----0---0---|----0---0---|----3---3---|----0-----0-|   |
G |----0---0---|--2-------2-|----0---0---|--2---------|--0-------0-|--0-------0-|--2-------2-|--0-----0---|   |
D |--2-------2-|0-----------|--2-------2-|0-----------|------------|------------|0-----------|------------|   |
A |0-----------|------------|0-----------|----------2-|3-----------|0-----------|------------|------------|  /
E |------------|------------|------------|------------|------------|------------|------------|3-----2-----| /

e |------------|------0-----|------------|------2-----|------0-----|------0-----|------2-----|------3-----|
B |------1-----|----3---3---|------1-----|----3---3---|----0---0---|----0---0---|----3---3---|----3-------|
G |----0---0---|--2-------2-|----0---0---|--2---------|--0-------0-|--0-------0-|--2-------2-|--0---------|
D |--2-------2-|0-----------|--2-------2-|0-----------|------------|------------|0-----------|------------|
A |0-----------|------------|0-----------|----------2-|3-----------|0-----------|------------|------------|
E |------------|------------|------------|------------|------------|------------|------------|3-----------|

                                                                                           e |------------| \
                                                                                           B |1-----3-----|  \
                                                                                           G |0-----2-----|   |
                                                                                           D |------------|   |
                                                                                           A |0-----2-----|   |
                                                                                           E |------------|   |
                                                                                                              | x2
e |------0-----|------0-----|------2-----|------------|------0-----|------0-----|------2-----|------3-----|   |
B |----0---0---|----0---0---|----3---3---|1-----3-----|----0---0---|----0---0---|----3---3---|----3-------|   |
G |--0-------0-|--0-------0-|--2-------2-|0-----2-----|--0-------0-|--0-------0-|--2-------2-|--0---------|   |
D |------------|------------|0-----------|------------|------------|------------|0-----------|------------|   |
A |3-----------|0-----------|------------|0-----2-----|3-----------|0-----------|------------|------------|  /
E |------------|------------|------------|------------|------------|------------|------------|3-----------| /




                             2ND GUITAR - WIND MELODY

                                                         e |------------------|
                                                         B |------------------|
              Rest for seven measures.                   G |---------14-14-16-|
                                                         D |------------------|
                                                         A |------------------|
                                                         E |------------------|

e |------------------|------------------|------------------|------------------|
B |------------------|------------------|---------17-15----|---------------15-|
G |17----------16-17-|14----------14-16-|17-------------17-|16-14-14----17----|
D |------------------|------------------|------------------|------------------|
A |------------------|------------------|------------------|------------------|
E |------------------|------------------|------------------|------------------|

e |------------15-14-|14-15-------------|------------------|------------------|
B |17----------------|------17----17-17-|15----------------|------------------|
G |------------------|------------------|---------14-17-16-|------------------|
D |------------------|------------------|------------------|17----------------|
A |------------------|------------------|------------------|------------------|
E |------------------|------------------|------------------|------------------|


                                                         e |------------------|
                                                         B |------------------|
              Rest for three measures.                   G |---------14-14-16-|
                                                         D |------------------|
                                                         A |------------------|
                                                         E |------------------|

e |------------------|------------------|------------------|------------------|
B |------------------|------------------|---------17-15----|---------------15-|
G |17----------16-17-|14----------14-16-|17-------------17-|16-14-14----17----|
D |------------------|------------------|------------------|------------------|
A |------------------|------------------|------------------|------------------|
E |------------------|------------------|------------------|------------------|

e |------------15-14-|14-15-------------|------------------|------------------|
B |17----------------|------17----17-17-|15----------------|------------------|
G |------------------|------------------|---------14-17-16-|------------14-16-|
D |------------------|------------------|------------------|17----------------|
A |------------------|------------------|------------------|------------------|
E |------------------|------------------|------------------|------------------|

e |------------------|------------------|---------15-14----|---------------14-|
B |------------------|------------------|---------------17-|15----------17----|
G |17----------16-17-|14----------14-16-|17----------------|---17-17----------|
D |------------------|------------------|------------------|------------------|
A |------------------|------------------|------------------|------------------|
E |------------------|------------------|------------------|------------------|

e |15----------19-17-|17-19-15----15-15-|------------15----|15----------------|
B |------------------|------------------|19-------15----19-|------------------|
G |------------------|------------------|------------------|------------------|
D |------------------|------------------|------------------|------------------|
A |------------------|------------------|------------------|------------------|
E |------------------|------------------|------------------|------------------|

                                                         e |------------------|
                                                         B |------------------|
                                                         G |------------------|
                                                         D |------------------|
                                                         A |------------------|
                                                         E |------------------|

e |19----------17----|------------------|------------------|---------17-------|
B |---------------20-|19-20-17----17-17-|------------20-19-|20----------------|
G |------------------|------------------|19----------------|------------------|
D |------------------|------------------|------------------|------------------|
A |------------------|------------------|------------------|------------------|
E |------------------|------------------|------------------|------------------|

e |19----------17----|------------------|------------------|------------------|
B |---------------20-|19-20-17----17-17-|------------20-19-|20----------------|
G |------------------|------------------|19----------------|------------------|
D |------------------|------------------|------------------|------------------|
A |------------------|------------------|------------------|------------------|
E |------------------|------------------|------------------|------------------|

                                                         e |------------------|
                                                         B |------------------|
                                                         G |------------------|
                                                         D |------------------|
                                                         A |------------------|
                                                         E |------------------|

e |19----------17----|------------------|------------------|---------17-------|
B |---------------20-|19-20-17----17-17-|------------20-19-|20----------------|
G |------------------|------------------|19----------------|------------------|
D |------------------|------------------|------------------|------------------|
A |------------------|------------------|------------------|------------------|
E |------------------|------------------|------------------|------------------|

e |19----------17----|------------22-20-|19----------------|------------------|
B |---------------20-|19-20-17----------|------22----20-19-|20----------------|
G |------------------|------------------|------------------|------------------|
D |------------------|------------------|------------------|------------------|
A |------------------|------------------|------------------|------------------|
E |------------------|------------------|------------------|------------------|




                            3RD GUITAR - WIND HARMONY

                                                         e |------------------|
                                                         B |------------------|
                      Rest for 27 measures.              G |---------------12-|
                                                         D |------------14----|
                                                         A |------------------|
                                                         E |------------------|

e |------------------|------------------|------------------|------------------|
B |------------------|------------------|---------17-15----|---------------15-|
G |14----------12-14-|11----------11-12-|12-------------17-|16-14-14----17----|
D |------------------|------------------|------------------|------------------|
A |------------------|------------------|------------------|------------------|
E |------------------|------------------|------------------|------------------|

e |------------15-14-|14-15-------------|------------------|------------------|
B |17----------------|------17----17-17-|15----------15----|------------------|
G |------------------|------------------|---------14----17-|16----------------|
D |------------------|------------------|------------------|------------------|
A |------------------|------------------|------------------|------------------|
E |------------------|------------------|------------------|------------------|

Login or Register to remove this ad.

2 comments on Autumn

Fun tab

5

I never play Rune Factory before, but this song sounds nice and the tab is really fun to play. Thanks xD.

YAY!

I love this song from Rune Factory! Thanks for making the tab for it! :D