Ads

Discotheque (Rosario + Vampire) Guitar Tab

Submitted: Jan 01, 2011 by cyx77

5
Average: 5 (8 votes)
Download | Listen
Game: Rosario + Vampire
Composer(s): Nana Mizuki
Style: Arrangement, Fingerstyle

AutoScroll: Slow | Medium | Fast
                                  Discotheque - Nana Mizuki
				Arranged By - Gianfranco Addante (cyx77)




     Q    Q    E  E  Q       E.  E.  Q    E  E  E     E.  E.  H        E   
E||-----------------------|--5---3---0-------------|----------------------|
B||-----------------------|--5-------1----4--3--1--|--3---1---------------|
G||------------------0----|--5-------0-------------|----------2--------L--|
D||---------------2-------|--7---------------------|----------2--------L--|
A||-----------------------|----------3-------------|----------0--------L--|
E||---------------0--3----|------------------------|--0---0---------------|


  Q    E  E  E.  Q    S    E  E  E.  H        S    Q    E  E  E.  Q    S  
------------------------|-----------------------|------------------------|
------------------------|-----------------------|------------------------|
--2----0--2--5---2----L-|--0--2--5---2--------L-|--2----0--2--5---2----L-|
--2----0--2--5---2----L-|--0--2--5---2--------L-|--2----0--2--5---2----L-|
--0----0--0--0---0----L-|--0--0--0---0--------L-|--0----0--0--0---0----L-|
------------------------|-----------------------|------------------------|


  E  E  E.  H        S    E.  S S S E  E  S S Q       E.  S S S E  E  S S Q     
-----------------------|------------------5-5------|------------------5-5------|
-----------------------|---------------------------|---------------------------|
--0--2--5---2--------L-|--2---2-----0--2-----------|--2---2-----0--2-----------|
--0--2--5---2--------L-|--2---2-----0--2-----------|--2---2-----0--2-----------|
--0--0--0---0--------L-|--0---0--------0-----------|--0---0--------0-----------|
-----------------------|----------0-3--------------|----------0-3--------------|


  E  E  E  E  E  E  E  E     E  E  E  E  E  E  E  E     Q    Q    E.  E.  E   
--------------------------|--0-----2-----3-----5-----|--9----5----9---7---0--|
--------0-----1-----3-----|-----------------1-----2--|--7----7----9---9------|
--2-----------------------|-----2-----2--------------|--7----7----9---9------|
-----2-----2-----2-----2--|--------------------------|--0----0------------2--|
--0-----0-----0-----0-----|--0-----2-----3-----4-----|--------------------4--|
--------------------------|--------------------------|------------0----------|


  E  E  E  E  E.  E.  E     Q    Q    E.  Q    S    E  E  E  E  H         
--L--2--5--7--7---5---L--|--9----5----9---7----L-|--9--8--7--6--L--------|
-----2-------------------|--7----7----9---9----L-|-----------------------|
--------------6---6---L--|--7----7----9---9----L-|--9--8--7--6--L--------|
--L-----2-----4---4---L--|--0----0---------------|--7--6--5--4--L--------|
--L-----4----------------|-----------------------|-----------------------|
-------------------------|------------0----------|-----------------------|


  E  E  E  E  E.  E.  E     E  E  E  S E.  E  E  E     E.  E.  E  E.   E.  E   
--2--2--5--7--8---7---L--|--0--0--2--4-5------5--7--|--9-------------------7--|
--3-----------8---9---L--|--2--2--2--2-----2--------|--7---7------7---10------|
--2-----------9---9---L--|-----------------2--------|--7-------9--------------|
--0-----0----------------|--------------------------|--0----------0-----------|
-------------------------|--4--4--4--4-----------4--|-------------------------|
--------------8---7---L--|-------------2------2-----|-------------------------|


  E.   E.  E  E.  E.  E     S S Q    S S Q    E   E   
--9---10---9--7----------|--5-5------5-5------8--10--|
--9-----------9---7---9--|--5-5------5-5-------------|
--9-----------9----------|--6-6------6-6-------------|
-------------------------|---------------------------|
-------------------------|---------------------------|
--0-----------0----------|--5-5------5-5------8--10--|


   E.   E   S Q    E  E  E     E  E  E  E  E  Q    E   
--11---10---L-8----5--3--L--|----------------------2--|
----------------------------|-----2--2-----2--5----2--|
----------------------------|-----------4----------2--|
----------------------------|--4-------------------0--|
----------------------------|-------------------------|
--11---10---L-8----5--3--L--|--2-----2-----2--2-------|


  E  E  E  S E.  E  E  E     E  E  E  S E  S E  E  E     E  E  E  E  Q    Q     
--L-----------------------|---------------------------|------------------------|
--L--------------------2--|--0-----L--2-0--L-L--0--5--|--3--2--0--2--2----0----|
--L--2--2--1-2------2-----|--1--L--2--L-1--L-L--------|--2-----------2---------|
--L--0--0----L---0--------|-----2--L---------2--------|------------------------|
--------------------------|---------------------------|--0-----------0---------|
--------------------------|--0--------L-0--L-------L--|-------------------4----|


  E  E  E  E  E  Q    E     E  E  E  S E.  E  E  E   
----------------------2--|--L-----------------------|
-----2--2-----2--5----2--|--L--------------------2--|
-----------4----------2--|--L--2--2--1-2------2-----|
--4-------------------0--|--L--0--0----L---0--------|
-------------------------|--------------------------|
--2-----2-----2--2-------|--------------------------|


  E  E  E  S E  S E  E  E     E  E  Q    E  E  E  E   
---------------------------|-------------------5--4--|
--0-----L--2-0--L-L--0-----|--0-------------2--------|
--1--L--2--L-1--L-L-----2--|--1--2--2----2-----------|
-----2--L---------2--------|-------------------------|
---------------------------|--------0----------------|
--0--------L-0--L-------L--|--0----------------------|


  E  E  E  S Q    S E  E     E  E  E  S E.  E  E  E   
--5-----2--4-5----L-L--5--|--4--5--4--2-0---------0--|
-----2-------7----L-7-----|--3-----3-----------------|
-------------7----L-7-----|--4-----4-----------2-----|
--------------------------|--2-----2--------2--------|
-------------5----L-L-----|-------------0------------|
--2-----------------------|--------------------------|


  E  E  E  S E.  E  E  E     E  E  E  E  E  E  Q       E  E  E  S Q    S E  E   
--2-----------------------|--------------0-----4----|--5-----2--4-5----L-L--5--|
--3--------------------2--|--0-----2-----0-----6----|-----2-------7----L-7-----|
--2--2--2--1-2------2-----|--1-----1-----------6----|-------------7----L-7-----|
--0--0--0--------0--------|-----2-----2-----2-------|--------------------------|
--------------------------|--------------------4----|-------------5----L-L-----|
--------------------------|--0-----0-----0----------|--2-----------------------|


  E  E  E  S E.  E  E  E     E  E  E  Q    E  E  E     Q.     E  E  E  Q     
--4--5--4--2-0------0--2--|--L--0--2--4-------4--5--|--L---------5-----5----|
--3-----3--------2-----3--|--L--------6----7-----7--|--L------7-----7-------|
--4-----4--------------2--|--L--------6----------7--|--L--------------------|
--2-----2--------------0--|--L----------------------|-----------------------|
-------------0------------|-----------4----------5--|--L--------------------|
--------------------------|-------------------------|-----------------------|


  Q    Q    Q    Q       E  E  E  E  E  E  E   E     Q    Q    E.  E.  E   
--7----2----5----7----|--8--8--8--8--7------------|--9----5----9---7---0--|
--9-------------------|--8--8--8--8--7-----7--10--|--7----7----9---9------|
--9-------------------|--9--9--9--9--8--9---------|--7----7----9---9------|
----------------------|---------------------------|--0----0------------2--|
--7-------------------|---------------------------|--------------------4--|
-------0----0----0----|--8--8--8--8--7------------|------------0----------|


  E  E  E  E  E.  E.  E     Q    Q    E.  Q    S    E  E  E  E  H         
--L--2--5--7--7---5---L--|--9----5----9---7----L-|--9--8--7--6--L--------|
-----2-------------------|--7----7----9---9----L-|-----------------------|
--------------6---6---L--|--7----7----9---9----L-|--9--8--7--6--L--------|
--L-----2-----4---4---L--|--0----0---------------|--7--6--5--4--L--------|
--L-----4----------------|-----------------------|-----------------------|
-------------------------|------------0----------|-----------------------|


  E  E  E  E  E.  E.  E     E  E  E  S E.  E  E  E     Q.     E  Q.     E   
--2--2--5--7--8---7---L--|--0--0--2--4-5---2--2--0--|--2------2--4------4--|
--3-----------8---9---L--|--2--2--2--2-----2--2-----|--3------3--6------6--|
--2-----------9---9---L--|--------------------------|--2------2--6------6--|
--0-----0----------------|--------------------------|--0-------------------|
-------------------------|--4--4--4--4--------------|------------4---------|
--------------8---7---L--|-------------2---2--------|----------------------|


  Q.     E  Q.     E      W                    E.   E.   E  E.  E.  E   
--5------5--7------7--|---8----------------|--10------------3-------8--|
--7------7--9------9--|--10----------------|--12---13---12--3---5------|
--7------7--9------9--|--10----------------|--12------------4----------|
----------------------|--------------------|---------------------------|
--5---------7---------|---8----------------|--10-----------------------|
----------------------|--------------------|----------------3----------|


  E.  E.  E.  E.  E  E     E.  E.  Q    E  E  E     E.  E.  Q    E  E  E   
------------------0--3--|--8---8---5-------------|--5---3---0-------------|
------1---3---4---------|--8---8---5-------------|--5-------1----4--3--1--|
--2---------------------|--9---9---6-------0--L--|--5-------0-------------|
--2---------------------|---------------2--------|--7---------------------|
--0---------------------|------------------------|----------3-------------|
------------------------|--8---8---5----0--3--L--|------------------------|


  E.  E.  Q    E  E  E     E  E  E  Q    E  E  E     E  E  E  Q.      Q     
---------------3--4--5--|--L--3--4--5----3--4--5--|--L--8--8--5------17----|
--3---1-----------------|-------------------------|------------------------|
----------2-------------|-------------------------|------------------------|
----------2-------------|-------------------------|------------------------|
----------0-------------|-------------------------|------------------------|
--0---0--------3--4--5--|--L--3--4--5----3--4--5--|--L--8--8--5------------|



Duration Legend
---------------
W - whole
H - half
Q - quarter
E - 8th
S - 16th
T - 32nd
X - 64th
. - note dotted
|-n-|  - n-tuplets


Tablature Legend
----------------
L - tied note
x - dead note
g - grace note
(n) - ghost note
> - accentuded note
NH - natural harmonic
AH - artificial harmonic
TH - tapped harmonic
SH - semi harmonic
PH - pitch harmonic
h - hammer on
p - pull off
b - bend
br - bendRelease
pb - preBend
pbr - preBendRelease
brb - bendReleaseBend
\n/ - tremolo bar dip
\n - tremolo bar dive
-/n - tremolo bar Release up
/n\ - tremolo bar inverted dip
/n - tremolo bar return
-\n - tremolo bar Release down
S - shift slide
s - legato slide
/ -  slide into from below or out of upwards
\ -  slide into from above or out of downwards
~ - vibrato
W - wide vibrato
tr - trill
TP - tremolo picking
T - tapping
S - slap
P - pop
< - fade in
^ - brush up
v - brush down
Login or Register to remove this ad.

2 comments on Discotheque

Damn that's good

5

Damn that's good

I really like your choice of

5

I really like your choice of songs.