Ads

Discotheque (Rosario + Vampire) Guitar Tab

Submitted: Sep 12, 2010 by kanshiketsu89

5
Average: 5 (1 vote)
Download | Listen
Game: Rosario + Vampire
Composer(s): Nana Mizuki
Style: Transcription

AutoScroll: Slow | Medium | Fast
Song name: Discotheque
Anime: Rosario + Vampire Capu2
Tabbed by: kanshiketsu89

This one's really fun to play. Try it out. Some parts are improvisations, so you might have problems
with figuring them out. If that happens, go watch my vid on youtube (just click the video lesson button
above). And well, hope you'll like my cover.

e/-------------------/-----------------------------------------------------------/
B/-------------------/-----------------------------------------------------------/
G/-7-5---------------/-----5--------5-------------------------17-----------17----/
D/-----7-5-----------/-5-7---7--5-7---7-----------------17-19----19--17-19----19-/
A/---------7-6-5-----/-----------------------------------------------------------/
E/---------------8-5-/------------------x-pick slide-x---------------------------/

e/--------------------------------------------------------------------------/-s9----9-------------------
B/--------------------------------------------------------------------------/----10---10------10-12B-10-
G/---------------5-7---------------5-7---------------5-7--7b-7b-7p5---5-----/------------9-11-----------
D/-----------5-7---------------5-7---------------5-7----------------7---7-7-/---------------------------
A/-----5h6h7-------------5h6h7-------------5h6h7----------------------------/---------------------------
E/-5-8---------------5-8---------------5-8----------------------------------/---------------------------

e/-s9----9--------------/-----------------------------/--------------9-10-9-7----------/
B/----10---10--10-9-8-7-/-----------------------------/-10-12-12s14-----------7-9-9h10-/
G/----------------------/------10-12B-10-------10-12b-/--------------------------------/
D/----------------------/-9-11------------9-11--------/--------------------------------/
A/----------------------/-----------------------------/--------------------------------/
E/----------------------/-----------------------------/--------------------------------/

e/-----------------/-----------2--------/-------------------------------/-----------2--------/
B/-7-9-10-9-7------/---2---2-5----2-----/---2-----------2-5-3-2---------/---2---2-5----5-2---/
G/------------9-7s-/-4---4----------4-2-/-4---4--2h4p2----------4-2-4s6-/-4---4------------4-/
D/-----------------/--------------------/-------------------------------/--------------------/
A/-----------------/--------------------/-------------------------------/--------------------/
E/-----------------/--------------------/-------------------------------/--------------------/

e/------------------------------/-------------------7---------------/--------------------------/
B/---2--------------------------/---7-9-10--7-9-10----10-9-7--------/----------------------7-9-/
G/-4---4--2h4p2--2s4s2--2h4-2-2-/-9--------------------------9------/----------------9-7-9-----/
D/------------------------------/------------------------------11-9-/-7--7h9p7--9s11-----------/
A/------------------------------/-----------------------------------/--------------------------/
E/------------------------------/-----------------------------------/--------------------------/

e/-------------7------------/----------------------/--------------------------------------------/
B/-10--7-9-10----10-9-7-----/-----7----7-9--7-9-10-/-10-10-7-10-10s12--12-12-12--13-13-13-13-12-/
G/----------------------9-6-/-7-9----9-------------/--------------------------------------------/
D/--------------------------/----------------------/--------------------------------------------/
A/--------------------------/----------------------/--------------------------------------------/
E/--------------------------/----------------------/--------------------------------------------/

e/----------s9----9-------------------/--s9----9--------------/-----------------------------/
B/------10-----10---10------10-12B-10-/-----10---10--10-9-8-7-/------10-12B-10-------10-12b-/
G/-9-11----------------9-11-----------/-----------------------/-9-11------------9-11--------/
D/------------------------------------/-----------------------/-----------------------------/
A/------------------------------------/-----------------------/-----------------------------/
E/------------------------------------/-----------------------/-----------------------------/

e/------------------------------/-----------------------------------15-20-20-17-15-17s-/
B/-5-7--7-9--9-10--10-12--12-13-/-15-13-12-----------------15-16-17--------------------/
G/------------------------------/----------12----16--14-17-----------------------------/
D/------------------------------/-------------14---------------------------------------/
A/------------------------------/------------------------------------------------------/
E/------------------------------/------------------------------------------------------/

e/--------------------/------------------------------------/
B/--------------------/------------------------------------/
G/-s7-5---------------/------------------------------------/
D/------7-5-----------/----------------------5h7p5--17-19s-/
A/----------7-6-5-----/-5-6-7--5-6-7--5-6-7----------------/
E/----------------8-5-/------------------------------------/
Login or Register to remove this ad.