Battle 2 (Romancing SaGa) Bass Tab

Submitted: Feb 26, 2010 by auriplane

0
Download | Listen
Game: Romancing SaGa
Composer(s): Kenji Ito
Style: Transcription

AutoScroll: Slow | Medium | Fast
                                    Romancing SaGa 1 - Battle 2 BASS TAB
                                          Composed by Kenji Ito

                                   Tabbed by Auriplane ([email protected])


This is for five-string bass, standard tuning.  Note that "T" here is Triplet, and that the final
measure before it repeats is 2/4 time (everything else is in 4/4).


        Intro


   E  E  E  E  E  E  E  E
G |------------------------|
D |------------------------|
A |------------3-----------| x4
E |3--5--6--3-----6--5--6--|
B |------------------------|


        Part A  --  Repeat back to here


   E  E  E  E  E  E  E  E   E  E  E  E  E  E  E  E   E  E  E  E  E  E  E  E   E  E  E  E  E  E  E  E
G |------------------------|------------------------|------------------------|------------------------|
D |------------------------|------------------------|------------------------|------------------------|
A |------------------------|3--3--3--3--3--3--3--3--|------------------------|1--1--1--1--1--1--1--1--|
E |3--3--3--3--3--3--3--3--|------------------------|1--1--1--1--1--1--1--1--|------------------------|
B |------------------------|------------------------|------------------------|------------------------|


   E  E  E  E  E  E  E  E   E  E  E  E  E  E  E  E   H           H            H           E  E  E  E
G |------------------------|------------------------|------------------------|------------------------|
D |------------------------|------------------------|------------------------|------------------------|
A |------------------------|------------------------|3-----------------------|5--------------0--------|
E |4--4--4--4--4--4--4--4--|3--3--3--3--3--3--3--3--|------------5-----------|-----------------10s-3--|
B |------------------------|------------------------|------------------------|------------------------|


   E  E  E  E  E  E  E  E   E  E  E  E  E  E  E  E   E  E  E  E  E  E  E  E   E  E  E  E  T   T   T
G |------------------------|---5-----5-----5-----5--|------------------------|---3-----3--------------|
D |---5-----5-----5-----5--|------------------------|---3-----3-----3-----3--|----------------5-------|
A |------------------------|3-----3-----3-----3-----|------------------------|1-----1-------------5---|
E |3-----3-----3-----3-----|------------------------|1-----1-----1-----1-----|------------3-----------|
B |------------------------|------------------------|------------------------|------------------------|


   T   T   T   H            H           E  E  E  E   E  E  E  E  E  E  E  E   E  E  E  E  E  E  E  E
G |----5-------------------|------------------------|------------------------|------------------------|
D |--------5---------------|------------------------|---5-----5-----5-----5--|------------------------|
A |3-----------3-----------|5--------------0--------|------------------------|---7-----7-----7-----7--|
E |------------------------|-----------------10s-3--|3-----3-----3-----3-----|------------------------|
B |------------------------|------------------------|------------------------|5-----5-----5-----5-----|


   E  E  E  E  E  E  E  E   E  E  E  E  E  E  E  E   Q     Q     T   T   T    H           E  E  E  E
G |---5-----5-----5-----5--|------------------------|------------------------|------------------------|
D |------------------------|---7-----7-----7-----7--|------------------------|------------------------|
A |3-----3-----3-----3-----|------------------------|5-----------6---8---6---|5--------------0--------|
E |------------------------|5-----5-----5-----5-----|------5-----------------|-----------------10s-3--|
B |------------------------|------------------------|------------------------|------------------------|


        Part B


   E  E  E  E  E  E  E  E                            E  E  E  E  E  E  E  E   
G |------------------------|                        |------------------------|
D |------------------------|                        |------5-----7--5-----5--|
A |------------3-----------|  x8                    |6--8-----6--------8-----|  x4
E |3--5--6--3-----6--5--6--|                        |------------------------|
B |------------------------|                        |------------------------|


   H           E  E  E  E   Q     Q     Q     Q      E  E  E  E  E  E  E  E   E  E  E  E  E  E  E  E
G |------------------------|------------------------|---8-----8-----5-----5--|---7-----7--------------|
D |------------------------|------------------------|------------------------|---------------5-----3--|
A |---------------8--------|------------------------|6-----6-----3-----3-----|5-----5-----------------|
E |------------------8-----|6-----6-----6-----6-----|------------------------|------------3-----1-----|
B |6--------------------6--|------------------------|------------------------|------------------------|


   E  E  E  E  E  E  E  E   E  E  E  E  E  E  E  E   E  E  E  E  E  E  E  E   H           E  E  E  E
G |---5-----5-----5-----5--|------------------------|---7-----7-----7-----7--|------------------------|
D |------------------------|---7-----7-----7-----7--|------------------------|------------------------|
A |3-----3-----3-----3-----|------------------------|5-----5-----5-----5-----|5--------------0--------|
E |------------------------|5-----5-----5-----5-----|------------------------|-----------------10s-3--|
B |------------------------|------------------------|------------------------|------------------------|


        Part C


   E  E  E  E  E  E  E  E   E  E  E  E  E  E  E  E   E  E  E  E  E  E  E  E   E  E  E  E  E  E  E  E
G |------------------------|------------------------|------------------------|------------------------|
D |------------------------|------------------------|------------------------|------------------------|
A |------------3-----------|------------3-----------|------------3-----------|------------3-----------|
E |3--5--6--3-----6--5--6--|3--5--6--3-----6--5--6--|3--5--6--3-----6--5--6--|3--5--6--3-----6--5--6--|
B |------------------------|------------------------|------------------------|------------------------|


   E  E  E  E  E  E  E  E   E  E  E  E  E  E  E  E   E  E  E  E  E  E  E  E   E  E  E  E  E  E  E  E
G |------------------------|------------------------|------------------------|------------------------|
D |------5-----7--5-----5--|------5-----7--5-----5--|------5-----7--5-----5--|------5-----7--5-----5--|
A |6--8-----6--------8-----|6--8-----6--------8-----|6--8-----6--------8-----|6--8-----6--------8-----|
E |------------------------|------------------------|------------------------|------------------------|
B |------------------------|------------------------|------------------------|------------------------|


   H           E  E  E  E   Q     Q     Q     Q      H           E  E  E  E   Q     Q     Q     Q
G |------------------------|------------------------|---------------8--------|------------------------|
D |------------------------|------------------------|------------------8-----|------------------------|
A |---------------8--------|------------------------|6--------------------6--|------------------------|
E |------------------8-----|6-----6-----6-----6-----|------------------------|8-----8-----5-----5-----|
B |6--------------------6--|------------------------|------------------------|------------------------|


   E  E  E  E  E  E  E  E   E  E  E  E  E  E  E  E   E  E  E  E  E  E  E  E   H
G |------------------------|------------------------|------------------------|------------|
D |------------------------|------------------------|------------------------|------------|  2/4 time
A |5--5--5--5--6--6--6--6--|5--5--5--5--------------|5--5--5--5--5--5--5--5--|------------|   for one
E |------------------------|------------5--5--5--5--|------------------------|------------|   measure
B |------------------------|------------------------|------------------------|------------|


        Now, repeat back to Part A.




Duration Legend
---------------
H - half note
Q - quarter note
T - quarter note triplet
E - eighth note


Tablature Legend
----------------
s - legato slide


Login or Register to remove this ad.