Ads

Main Theme (Rollercoaster Tycoon 2) Guitar Tab

Submitted: Mar 04, 2012 by kenor

5
Average: 5 (7 votes)
Download | Listen
Game: Rollercoaster Tycoon 2
Composer(s): Allister Brimble
Style: Arrangement, Fingerstyle
Series: Rollercoaster Tycoon

AutoScroll: Slow | Medium | Fast
Main Theme                                         
~Rollercoaster Tycoon 2~

Composed by: Allister Brimble
Arranged by: kenor

Rhytm: 3/4 metrum
BPM = ~86


Guitar
------                                  



     E  E  E  E  E  E     E  E  E  E  E  E     E  E  E  E  S S E     E  E  E  E  S S E   
E||--------------------|--------------------|---------------------|---------------------|
B||--1--------1--3--5--|--3--------3--1--0--|--1--------1----0----|---------------------|
G||-----2--2-----4--5--|-----4--4--4--2--1--|-----2--2---------2--|--1-----2--4---------|
D||-----2--2-----------|-----3--3-----------|-----1--1-----1------|--0-----4--6----7-6--|
A||--0--------0--------|--------------------|---------------------|-----2--------5------|
E||--------------------|--4--------0--------|--2--------2---------|--0--------0---------|


                                                                 ^        ^         
  E  E  E  E  E  E     E  E  E  E  E  E     E  E  E  E  E  E     E  E  E  E  Q      
--------------0--1--|--0--------5--7--8--|--7--------7--5--4--|--7--------7--1/----|
--3--------3--------|-----1--1-----------|-----6--6-----------|--6--6--6--5--L-----|
-----2--2-----2--2--|-----2--2--5--7--9--|--7--7--7--7--5--4--|--7--7--7--7--L-----|
-----3--3-----------|--------------------|--------------------|--------------------|
--------------------|--------------------|--------------------|--------------------|
--1--------1--------|--0--------0--------|--0--------0--------|--0--------0--L-----|


  E  E  E   E  E   E     E  E  E  E  E  E     E  E  E   E  E  E     E  E  E  E  E  E   
--8-------------------|--3-----------3--5--|--6------------------|--1-----------1--3--|
-----8--8--12-----10--|-----3--3-----3--5--|-----6--6--10-----8--|-----3--3-----3--5--|
-----9--9------9---9--|-----4--4-----------|-----7--7------7--7--|-----2--2-----------|
----------------------|--------------------|---------------------|--0--------0--------|
----------------------|--------------------|---------------------|--------------------|
--8---------8---------|--3--------3--------|--6---------6--------|--------------------|


  E  E  E  E  E  E     E  E  E  E  E  E     E  S S S S E  S S S S    E  E  E  E  E  E   
--4--------3-----1--|--0--------5--------|-------0---0------0---0-|-----0--3--8--------|
-----4--4-----------|-----1--1-----5--5--|--3--3---3---3--3---3---|--1--------8-----8--|
-----5--5-----5--1--|-----0--0-----5--5--|-----2------------------|-----------9--9-----|
--------------------|--------------------|--0------3----------3---|--2-----------------|
--------------------|--3-----------------|----------------2-------|--3-----------------|
--4--------4--------|-----------5--------|-------------3----------|--------------------|


  E  E  E   E  E   E     E  E  E  E  E  E     E  E  E   E  E  E     E  E  E  E  E  E   
--8-------------------|--3-----------3--5--|--6------------------|--1-----------1--3--|
-----8--8--12-----10--|-----3--3-----3--5--|-----6--6--10-----8--|-----3--3-----3--5--|
-----9--9------9---9--|-----4--4-----------|-----7--7------7--7--|-----2--2-----------|
----------------------|--------------------|---------------------|--0--------0--------|
----------------------|--------------------|---------------------|--------------------|
--8---------8---------|--3--------3--------|--6---------6--------|--------------------|


  E  E  E  E  E  E     E  E  E  E  E  E     E  S S S S E  S S S S    E  E  E  E  E  E   
--4--------3-----1--|--0--------5--------|-------0---0------0---0-|-----0--3--8--0--3--|
-----4--4-----------|-----1--1-----5--5--|--3--3---3---3--3---3---|--1--------8--------|
-----5--5-----5--1--|-----0--0-----5--5--|-----2------------------|-----------9--------|
--------------------|--------------------|--0------3----------3---|--2-----------------|
--------------------|--3-----------------|----------------2-------|--3-----------------|
--4--------4--------|-----------5--------|-------------3----------|--------------------|


  E  E  E  E  E  E     E  E  E  E  E  E     E  E  E  E  E  E     E  E  E   E   E  E   
--4--------3-----1--|--0-----------1--3--|--4--------3-----1--|--8-------------------|
-----1--1-----1-----|-----1--1-----1--1--|-----1--1-----1-----|-----8--8----------8--|
-----1--1-----1-----|-----0--0-----------|-----1--1-----1-----|-----8--8------10-----|
--------------------|--------------------|--------------------|-----------10---------|
--------------------|--3--------3--------|--------------------|----------------------|
--1--------1--------|--------------------|--1--------1--------|--8-------------------|


  E  E  E  E  E  E     E  E  E  E  E  E     E  E  E  E  S S  S S    E  E  E  E  E  E   
--4--------6-----4--|--3--------5--------|--5--------1---------3-|-----0--3--8--2--3--|
-----4--4-----4-----|-----1--1-----5--5--|-----6--6-------3p-0---|--1--------8--------|
-----5--5-----5-----|-----0--0-----5--5--|-----7--7-----0--------|--0--------9--------|
--------------------|--------------------|--0--------------------|--------------------|
--------------------|--3-----------------|-----------------------|--3-----------------|
--4--------4--------|-----------5--------|-----------3-----------|--------------------|


  E  E  E  E  E  E     E  E  E  E  E  E     E  E  E  E  E  E     E  E  E   E   E  E   
--4--------3-----1--|--0-----------1--3--|--4--------3-----1--|--8-------------------|
-----1--1-----1-----|-----1--1-----1--1--|-----1--1-----1-----|-----8--8----------8--|
-----1--1-----1-----|-----0--0-----------|-----1--1-----1-----|-----8--8------10-----|
--------------------|--------------------|--------------------|-----------10---------|
--------------------|--3--------3--------|--------------------|----------------------|
--1--------1--------|--------------------|--1--------1--------|--8-------------------|


  E  E  E  E  E  E     E  E  E  E  E  E     E  E  E  E  E  E     E  E  E  E  E  E   
--4-----------------|--5--------3-----2--|--5-----------------|--6--------5-----3--|
-----4--4--8-----6--|--------------1--1--|-----7--7--8-----7--|-----3--3-----3-----|
-----5--5-----5--5--|-----5--5-----2--2--|-----5--5-----5-----|-----3--3-----4-----|
--------------------|--3--------3--------|--0-----------0-----|--------------------|
--------------------|--------------------|-----------0--------|--------------------|
--4--------4-----L--|--------------------|--------------------|--3--------3--------|


  E   E   E  E  S  S  S  S    E  E  E  E.  S S S    E  E  E  E  E  E   
--8------------------------|--8----------------0-|--1-----------0--0--|
-----10--10-------10----10-|-----8--8--------1---|-----1--1-----1--1--|
-----10--10----------10----|-----9--9------2-----|-----2--2-----3--3--|
---------------------------|---------------------|--------------------|
----------------8----------|-----------3---------|-----------3--------|
--8----------8-------------|--8------------------|--1-----------------|


  E  E  E  Q.       
-----1--1--1------||
-----1--1--1------||
-----2--2--2------||
------------------||
------------------||
--1--------1------||
Login or Register to remove this ad.

3 comments on Main Theme

tab of the year

5

tab of the year

very nice !

5

Great tab again, bravo sir Kenor !
If as me people can't read classic notation, they will probably prefer print it as an 1 page tab (it saves forest :), like this : Main Theme (Rollercoaster Tycoon 2) Guitar Tab

It sounds really good, but

It sounds really good, but those chords are quite tricky. :l