Ads

SeaSawHorse (Legacy Select) (Rogue Legacy) Guitar Tab

Submitted: Jul 24, 2014 by SlashBib (Last updated: Jul 26, 2014)

5
Average: 5 (1 vote)
Download | Listen
Game: Rogue Legacy
Composer(s): Tettix, A Shell in the Pit
Style: Alternate picking, Transcription

AutoScroll: Slow | Medium | Fast
Game : Rogue Legacy
Title : SeaSawHorse (Legacy Select)
Artist : Tettix & A Shell in the pit
Tabber : SlashBib
Date : 24/07/2014

E|--------------------------------|---------------------------------------
B|--------------------------------|---------------------------------------
G|--7---9-5--7--5-----5-----------|--7---9-5--7--5------------------------
D|-----------------9-----9--5--7--|-----------------9--7------------------
A|--------------------------------|---------------------------------------
E|--------------------------------|---------------------------------------

E|--------------------------------|---------------------------------------
B|--------------------------------|---------------------------------------
G|--7---9-5--7--5-----5-----------|---------------------------------------
D|-----------------9-----9--5--7--|-------3--5--7--5--3--------2----------
A|--------------------------------|-5--7-----------------7--5-----3--5----
E|--------------------------------|---------------------------------------


Login or Register to remove this ad.

1 comment on SeaSawHorse (Legacy Select)

Nice!

thank you very much :)