Ads

Rocky's Message (Pocky and Rocky) Guitar Tab

Submitted: Jul 17, 2022 by jked (Last updated: Jul 20, 2022)

0
Download | Listen
Game: Pocky and Rocky
Composer(s): Hiroyuki Iwatsuki
Style: Arrangement, Fingerstyle

AutoScroll: Slow | Medium | Fast

Pocky & Rocky
Rocky's Message
Hiroyuki Iwatsuki
7/17/2022

E |-----------1----------------------------------------|
B |--3--1--3-----3-----1-------------------------------|
G |--------------------------2-------------------------|
D |--0-----------------------------------------3-------|
A |--------------------------3-------------------------|
E |----------------------------------------------------|


----------------------------------------------------|
----------------------------------------------------|
--0--2--0--2--0-------------------------------------|
--------------------3-----0-------------------------|
--2-----------------------1-----------0-----3-------|
----------------------------------------------------|


----------------------------------------------------|
----------------------------------------------------|
--------------------------2-----2-----0-------------|
--0-----------0-----3-----------------------3-------|
-----------3--------------5-------------------------|
--5-------------------------------------------------|


----------------------------|
----------------------------|
--------------0-------------|
--------0--3-----------3----|
--3--3--------3-------------|
--3-------------------------|


----------------------------------------------------|
--------------------1-------------------------------|
--2-----2--0--2-----------0-------------------------|
----------------------------------------------------|
--5-----------------------4-------------------------|
----------------------------------------------------|


----------------------------------------------------|
----------------------------------------------------|
--------------------2-------------------------------|
--3-----3--2--3-----------2-------------------------|
--3-----------------------2-------------------------|
----------------------------------------------------|


----------------------------------------------------|
----------------------------------------------------|
--------------------2-----0-------------------------|
--3-----3--2--3-----------------3-----0-------------|
--3-----------------------2-----------------3-------|
----------------------------------------------------|


----------------------------------------------------||
----------------------------------------------------||
--------------------0-----0-------------------------||
--0--------0--3-------------------------------------||
--1-----------------------3-------------------------||
----------------------------------------------------||
Login or Register to remove this ad.