Login or Register to remove this ad.

Suteki na Kajitsu (Ristorante Paradiso) Guitar Tab

Submitted: Jan 06, 2017 by tomorning

5
Average: 5 (6 votes)
Download | Listen
Game: Ristorante Paradiso
Composer(s): ko-ko-ya
Style: Arrangement, Artificial harmonics, Fingerstyle

AutoScroll: Slow | Medium | Fast
                                 Sutekina kajitsu (on air length)
                                 (ステキな果実 オンエアーサイズ)
                anime "Ristorante Paradiso" (リストランテ・パラディーゾ) ED

Music by Lisa Komine (コミネリサ,小峰理紗) / arrangement : Lie Hamada (濱田理恵)
Words by Yuho Iwasaki (岩崎裕穂)

fingerstyle arranged by to*morning



Standard tuning

Allegro Moderato (q=120) (8=s8)

     >       >  >   >     >     >  >   >  >  >  >  >  >     >  >     >    >  >  >     >  >  >     >        >   
     Q    E  E  E   E  E  E     E  E   E  E  E  E  E  E     E  E  E  Q    E  E  E     E  E  E  E  E  E  E  E   
E||--7-------------10-----9--|-----7------0-----0--2--3--|-----0-----3----5-----7--|--------------------------|
B||--8----------8---------8--|--------10--------------5--|-----------5----5--------|--------1-----2-----3-----|
G||--7-------7---------------|------------------------5--|-----------5----5-----0--|--------0-----1-----2-----|
D||--9--------------------7--|---------------------------|-----------0-------0-----|-----0--2-----3-----4-----|
A||--7-----------------------|--0------------------------|--0----------------------|--------0-----1-----2--0--|
E||--0-----------------------|---------------------------|----------------------3--|--------------------------|


  ^      >  > >  >     >     >  >        >     >      >     >    >  >     >     >           >     >         
  Q.     S  S E  E  E  E     E  S  S  E  E  E  E   E  E     Q    E  E  E  E  E  E     E  E  E  E  H         
--------------0--3-----3--|---------------------------3--|-------0--3-----5-----3--|-----------------------|
---------2h-3----------2--|--------------------3h--5-----|--1-------3-----------0--|-----0--1--0-----------|
--0--------------------2--|-----2h-3p-2--0---------------|--0-------------------0--|-----0--0--0-----------|
--0--------------------2--|------------------------------|----------0-----------0--|-----0--2--0-----------|
-----------------------0--|------------------------------|--0----------------------|-----------------------|
--0-----------------------|------------------------------|----------------------3--|--------------3--------|


  >       >  >  >  >  >     >          >  >  >       >       >  >  >  >  >     >  >  >     >  >  >     
  Q    E  E  E  E  E  E     Q    E  E  E  E  Q       Q    E  E  E  E  E  E     E  E  E  E  E  E  Q     
----------0-----0--2--3--|------------------------|----------0-----0--2--5--|-----3--3----------------|
-------------4-----------|-------0--------0-------|-------------4-----------|-----------0-----0-------|
--0----------------2-----|-------0--------0-------|-------0-----------0-----|--------0--------0-------|
--2----------4-----1-----|--2-------2--0-----0----|-------2-----------1-----|--2-----------0-----0----|
--3----------2-----------|------------------------|--3----------2-----------|-------------------------|
-------------------------|------------------------|-------------------------|-------------------------|


  >       >  >  >  >  >     >       >  >  >     >  >     >    >  >  >    >  >     >  >  >  >         >     
  Q    E  E  E  E  E  E     E   E   E  E  E  E  E  E     Q    E  E  Q    E  E     E  E  E  E  Q      Q     
----------0-----0--2--3--|----------5--3--------------|-------0--3-------------|--------------------A.H.--|
-------------4-----------|-----(0)--------------3--2--|------------------1--0--|--------1----------<3>15--|
-------0-----------2-----|------0------------0--------|-------0----------2--0--|-----------2--------------|
-------2-----------1-----|--2-------------0-----------|------------------------|-----------0--------------|
--3----------2-----------|----------------------------|--4----------3----------|--0--0--------------------|
-------------------------|----------------------------|------------------------|--------------------------|


  >       >  >  >  >  >     >              >  >  >       >       >  >  >  >  >     >     >     >           
                                  |--3--|                                                                  
  Q    E  E  E  E  E  E     E  E  E  E  E  E  E  Q       Q    E  E  E  E  E  E     E  E  E  E  E  E  Q     
----------0-----0--2--3--|--------0-------------------|----------0-----0--2--5--|--------3----------------|
-------------4-----------|-----------0--------0-------|-------------4-----------|--------0--------0-------|
-------0-----------2-----|-----0--------0-----2-------|-------0-----------0-----|-----0-----0--------2----|
-------2-----4-----1-----|--2--------------0----------|-------2-----------1-----|--2-----------0----------|
--3----------2-----------|----------------------------|--3----------2-----------|-------------------------|
-------------------------|-----------------------3----|-------------------------|-------------------------|


  >       >  >  >  >  >     >       >  >  >     >  >     >  >     >  >  >     >     >  >             >     
  Q    E  E  E  E  E  E     E   E   E  E  E  E  E  E     E  E  E  E  E  E  E  E     E  E  E  E  Q    Q     
----------0-----0--2--3--|----------5--3--------8--7--|-----5-----3-----6--5--3--|-----------0-------3----||
-------------4-----------|-----(0)--------------------|-----5-----------5--------|--1--1-----1------------||
-------0-----------2-----|------0------------0--------|-----0-----------3--------|--0--0-----2------------||
-------2-----------1-----|--2-------------0-----------|--------------------------|--2--2-----0------------||
--3----------2-----------|----------------------------|--4-----------3-----------|--0--0------------------||
-------------------------|----------------------------|--------------------------|------------------------||
                                                                              4


  >         >  >  >  >     >  >     >           >      >    >  >       >  >     >          >  >  >  >   
  Q    Q    E  E  E  E     E  E  E  E  Q    E   E      Q    E  E  Q    E  E     Q    E  E  E  E  E  E   
--1---------------------|-----------6-----------6---|--5----8----------------|-------------------------|
------------3--4--6--6--|-----4---------------------|----------6-------4--3--|-------------1--1--3-----|
-------3----3-----3-----|---------------------------|-------5-----5----5-----|-------3--------------3--|
-------3----3-----3-----|--------5-----5----5-------|-------7-----7----7-----|----------0--------0-----|
--1---------------------|--------6-----6----6-------|--0---------------------|-------------------------|
------------------------|--6-------------------(6)--|------------------------|--3----------1-----------|

                  4        3  1  2
                                 3


  >          >  >  >  >     >  >     >  >  >     >     >                      >  >     >     >  >  >   
  Q    E  E  E  E  E  E     E  E  E  E  E  E  E  E     Q    Q    Q    Q       E  E  E  E  E  E  E  E   
-------3--------------3--|--------------------------|------------5----8----|--3--3-----5--------5--7--||
-------4-----------------|-----6-----3--------------|------------6----6----|--5--5-----5-----8--------||
----------3--0--3--0-----|-----------3-----5-----7--|-------5----5----5----|--5--5-----5--------------||
--1----------1-----------|--------3-----------------|-------7--------------|--0--0-----0--------------||
-------------------------|--5-----------5-----------|--5-------------------|--------------------------||
-------------------------|--------------------------|----------------------|--------------------------||
  1    3  2
       4

*don't pedal bass notes

  >    >    >    >  >     >    >  >  >  >  >  >     >    >             >     >     >  >     >  >  >   
  Q    Q    Q    E  E     Q    E  E  E  E  E  E     Q    Q    E  E  E  E     E  E  E  E  E  E  E  E   
--------------------7--|--7----8--7-----------7--|---------------------6--|--6-----8--6-----3--5--3--|
-------5----5----5-----|-------5-----5--8--------|-------8----8-----8-----|--------6--6--------------|
-------6----6----6-----|-------5-----5-----5-----|-------7----7-----7-----|-----6--------6-----------|
-----------------------|-------------------------|-------9----9-----9-----|--------------------------|
--4--------------------|--3----------------------|------------------------|--------------------------|
-----------------------|-------------------------|--7------------7--------|--6-----------------------|


  >    >    >  >   >   >     >  >     >  >  >  >  >     >  >  >                 >  >     >     >  >  >   
  Q    Q    E  E   E   E     E  E  E  E  E  E  E  E     E  E  Q    Q    Q       E  E  E  E  E  E  E  E   
---------------0---3---8--|-----7-----------5-----5--|--------7----5----8----|--3--3-----0--------5--7--|
-------1----3------1------|-----------8-----6--------|-----8-------6----6----|-----------------8--------|
-------2----2------2------|--------5--------5--------|--------5----5----5----|--2--2-----2--------------|
-------2----2-----(2)-----|-----7--------------------|-----------------------|--3--3-----3--------------|
--0-----------------------|--5-----------5-----5-----|--5--------------------|--------------------------|
--------------------------|--------------------------|-----------------------|--3--3-----3--------------|


  >    >    >    >  >     >    >  >  >  >  >  >     >    >             >     >     >  >     >  >  >   
  Q    Q    Q    E  E     Q    E  E  E  E  E  E     Q    Q    E  E  E  E     E  E  E  E  E  E  E  E   
--------------------7--|--7----8--7-----------7--|---------------------6--|--6-----8--6-----3--5--3--|
-------5----5----5-----|-------5-----5--8--------|-------8----8-----8-----|--------6--6--------------|
-------6----6----6-----|-------5-----5-----5-----|-------7----7-----7-----|-----6--------6-----------|
-----------------------|-------------------------|-------9----9-----9-----|--------------------------|
--4--------------------|--3----------------------|------------------------|--------------------------|
-----------------------|-------------------------|--7------------7--------|--6-----------------------|


  >    >    >  >   >   >     >  >     >  >  >  >  >     >        >  >    >  >           >        >  >  >   
  Q    Q    E  E   E   E     E  E  E  E  E  E  E  E     E  E  E  E  Q    E  E     E  E  E  E  E  E  E  E   
---------------0---3---8--|-----7-----------5-----3--|-------------------------|--------0--------3--5--3--|
-------1----3------1------|-----------8-----6--------|-----1--------3-------1--|--------1-----------------|
-------2----2------2------|--------5--------5--------|-----0-----0--2----0--0--|--------2-----------------|
-------2----2-----(2)-----|-----7--------------------|-----2----------------2--|--------0-----------------|
--0-----------------------|--5-----------5-----5-----|--0-----------2-------3--|--------------------------|
--------------------------|--------------------------|-------------------------|--------------------------|


      >         >       >                   >  >           
  E   E   E  E  Q    E  E     E.  T T T T S E  Q    Q      
-----(3)--------1----------|------3----------------------||
------3---------1-------3--|--------0--------------------||
------3---------2-------0--|----------0------------------||
------1---------0-------0--|------------0----------------||
---------------------------|----------------2------------||
------------------------3--|-------------------3---------|| fine....

Login or Register to remove this ad.

1 comment on Suteki na Kajitsu

All your Ristorante Paradiso

All your Ristorante Paradiso tabs are in my favorites, they're just amazing.