Ads

Nostalgia (Ristorante Paradiso) Guitar Tab

Submitted: Dec 01, 2015 by tomorning

5
Average: 5 (8 votes)
Download | Listen
Game: Ristorante Paradiso
Composer(s): ko-ko-ya
Style: Arrangement, Fingerstyle

AutoScroll: Slow | Medium | Fast
                                           Nostalgia 
                                         (ノスタルジア)
                   ~ from anime "Ristorante Paradiso (リストランテ・パラディーゾ)" ~

Music by Shigeharu Sasago (笹子重治) / ko-ko-ya (コーコーヤ)
arranged by to*morning


Standard tuning (E,A,D,G,B,E)

  Moderato (q = 92 )

     E  E  E  E  E  E  E  E     E  E  E  E  E  E  E  E     E  E  E  E  E  E  E  E     E  E  E  E  Q    Q     
E||--------------0-----------|--------------0-----------|--------------------------|--------------0---------||
B||-----------0-----------0--|-----------0-----------0--|--------------3--------3--|--1--------1------------||
G||--------2-----------2-----|--------2-----------2-----|--------0-----------0-----|--1-----1---------------||
D||-----5-----------5--------|-----5-----------5--------|-----4-----4-----4--------|-----0-------------0----||
A||--4-----------------------|--3-----------------------|--2-----------------------|------------------------||
E||--------------------------|--------------------------|--------------------------|--0---------------------||


  >                               >     >    >     >                                 >     >    >   
  Q    E  Q    Q    E     Q    E  E  E  Q    E     E  E  E  E  E  Q    E     Q    E  E  E  Q    E   
-------0-------0-------|-------0----------------|----------------------1--|-------0----------------|
--3-------0---------0--|----------0----------3--|-----------3-----3----3--|----------0-----3-------|
--5-------5---------5--|----------------5-------|--------4--------4----1--|----------1-----1----5--|
----------5---------4--|----------------4-------|-----4-----------4-------|-------------2--2-------|
--0--------------------|--5----------5----------|-------------------------|------------------------|
-----------------------|------------------------|--3-----------3----------|--0---------------------|


  >                            >  >     >    >     >                         >                >     
  Q    E  Q    Q    E     Q    E  E  E  Q    E     E  E  E  E  E  E  Q       E  Q    E  E  E  Q     
-------0-------0-------|------------------------|-------------------------|-----3----------3-------||
----------0---------0--|----------0-------------|--------0--------3-------|--3-------3-------------||
--5-------5---------5--|-------5-------------2--|-----------------0-------|--1-------1--------0----||
--5-------5---------4--|----------------4-------|-----4-----4-----4-------|------------------------||
--0--------------------|--5----------5----------|-------------------------|------------------------||
-----------------------|------------------------|--3-----------3----------|--0---------------------||


  >                               >     >    >     >                                 >     >    >   
  Q    E  Q    Q    E     Q    E  E  E  Q    E     E  E  E  E  E  Q    E     Q    E  E  E  Q    E   
-------0-------0-------|-------0----------------|----------------------1--|-------0----------------|
--3-------0---------0--|----------0----------3--|-----------3-----3----3--|----------0-----3-------|
--5-------5---------5--|----------------5-------|--------4--------4----1--|----------1-----1----5--|
--5-------5---------4--|----------------4-------|-----4-----------4-------|-------------2--2-------|
--0-------0------------|--5----------5----------|-------------------------|------------------------|
-----------------------|------------------------|--3-----------3----------|--0---------------------|


  >                            >  >     >    >                               ^                       
  Q    E  Q    Q    E     Q    E  E  E  Q    E     Q    E  E  E  E  E  E     E  E  E  E  E  E  Q     
-------0-------0-------|------------------------|-------0--------0--------|-----3-----------3-------||
----------0---------0--|----------0-------------|-------1--------1--------|--5--------4-------------||
--5-------5---------5--|-------5-------------2--|-------2-----------------|--4--------4--------0----||
--5-------5---------4--|----------------4-------|-------------------------|-------------------------||
--0--------------------|--5----------5----------|-------------------------|-------------------------||
-----------------------|------------------------|--1-------1--1--------2--|--3-----3----------------||


  >                        >     >  >     >    >     >                             >        >    >   
  Q    E  E  E  Q    E     E  E  E  E  E  Q    E     Q    E  E  E  Q    E     Q    E  E  E  Q    E   
--3---------------------|--------2--3-----5-------|------------------------|----------0----------1--|
--3----3--------3----3--|-----0-----------3----3--|-------3--------3-------|-------3--------3-------|
--4----4--------4----4--|-----0-----------3----2--|-------2--------2-------|-------2--------2-------|
--5-------5-----5----5--|----------------------4--|----------4----------4--|-------4--------4-------|
--3----------3----------|--4----------------------|--2----------2----------|--2----------2----------|
------------------------|--------------0----------|------------------------|------------------------|


  >                                                                              >  >     >    >   
  Q.     E  E  Q.        Q    E  E  E  Q    E     Q.     E  E  E  E  E     E  E  E  E  E  Q    E   
----------------------|----------------1----0--|---------------0--------|-------------------------|
--3------3-----0------|--3-------0-------------|--1------1-----------1--|--------0--1-----3----4--|
--2------2-----2------|--1----1-----1----------|------------------------|-------------------------|
------------0---------|--2----------2----------|--2------2-----------2--|-------------------------|
--2-------------------|------------------------|--0---------------------|--------------0----------|
----------------------|--0---------------------|------------4-----------|--3--0-------------------|


                            >                                                              >            
  Q    E  E  E  E  E  E     Q    E  E  E  Q    E     E  E  E  E  E  E  E  E     Q    E  E  E  E  E  E   
-------------------------|-------1--3-----5----6--|--------------5-----------|--3-------------------3--|
-------------------------|----------------4-------|--------------------------|-------------------------|
--3-------3-----3-----2--|-------2--3-----5-------|--------0-----------0-----|--3----0--2-----3--------|
--1----1--------1-----1--|-------------3----------|-----3-----3-----3-----3--|-------------------------|
-------------------------|------------------------|--------------0-----------|-------------------------|
--1----------1-----------|--1---------------------|--6-----------------------|--3----------1-----------|


                                                                          >                         >   
  E  E  E  E  E  Q    E     E  E  E  E  E  Q    E     Q    E  E  E  E  E  E     Q    E  E  E  E  E  E   
-----------0-----2----3--|-----------------0----2--|-------------------------|-------------------------|
--------3----------------|--------2--3-------------|--2-------2--------------|--3----------------------|
-----------0-------------|--------0----------------|----------------4--------|--4----4--------4--------|
--------2----------------|-----2-------------------|--4-------4-----4-----0--|----------4-----4-----0--|
-----2-------------------|--0----------------------|--5----------5-----------|-------------------------|
--0-----------0----------|-------------------------|-------------------------|--3----------3-----------|


  Q    E  E  E  E  Q       Q.     E  E  Q.        E  E  E  E  E  E  E  E     E  E  E  E  Q    Q     
-------------------0----|--2------------0------|--------------------------|--------------2---------||
--5----5----------------|--3------3-----3------|--4-----------2-----------|-----------2------------||
--6----6--------2-------|--4------4-----4------|--------3-----------3-----|--------1---------------||
--4----4--------4-------|----------------------|-----4-----4-----4-----4--|-----1-------------0----||
--5-------5--0----------|----------------------|--2-----------------------|--2---------------------||
------------------------|--3---------3---------|--------------------------|------------------------||


  >                               >     >    >     >                                 >     >    >   
  Q    E  Q    Q    E     Q    E  E  E  Q    E     E  E  E  E  E  Q    E     Q    E  E  E  Q    E   
-------0-------0-------|-------0----------------|----------------------1--|-------0----------------|
--3-------0---------0--|----------0----------3--|-----------3-----3----3--|----------0-----3-------|
--5-------5---------5--|----------------5-------|--------4--------4----1--|----------1-----1----5--|
----------5---------4--|----------------4-------|-----4-----------4-------|-------------2--2-------|
--0--------------------|--5----------5----------|-------------------------|------------------------|
-----------------------|------------------------|--3-----------3----------|--0---------------------|


  >                            >  >     >    >      >                         >                >     
  Q    E  Q    Q    E     Q    E  E  E  Q    E      E  E  E  E  E  E  Q       E  Q    E  E  E  Q     
-------0-------0-------|------------------------||-------------------------|-----3----------3-------|
----------0---------0--|----------0-------------||--------0--------3-------|--3-------3-------------|
--5-------5---------5--|-------5-------------2--||-----------------0-------|--1-------1--------0----|
--5-------5---------4--|----------------4-------||-----4-----4-----4-------|------------------------|
--0--------------------|--5----------5----------||-------------------------|------------------------|
-----------------------|------------------------||--3-----------3----------|--0---------------------|


  >                               >     >    >     >                                 >     >    >   
  Q    E  Q    Q    E     Q    E  E  E  Q    E     E  E  E  E  E  Q    E     Q    E  E  E  Q    E   
-------0-------0-------|-------0----------------|----------------------1--|-------0----------------|
--3-------0---------0--|----------0----------3--|-----------3-----3----3--|----------0-----3-------|
--5-------5---------5--|----------------5-------|--------4--------4----1--|----------1-----1----5--|
--5-------5---------4--|----------------4-------|-----4-----------4-------|-------------2--2-------|
--0-------0------------|--5----------5----------|-------------------------|------------------------|
-----------------------|------------------------|--3-----------3----------|--0---------------------|


  >                            >  >     >    >     >          >                        >            
  Q    E  Q    Q    E     Q    E  E  E  Q    E     E  Q    E  E  Q    E     E  Q    E  E  E  E  E   
-------0-------0-------|------------------------|---------------------0--|-------------------------|
----------0---------0--|----------0-------------|-----0----2-----3----3--|-----1----0-----1-----3--|
--5-------5---------5--|-------5-------------2--|----------2-----2-------|-----2----2-----2--------|
--5-------5---------4--|----------------4-------|-----4----4-----4-------|-----2----2-----2--------|
--0--------------------|--5----------5----------|------------------------|-------------------------|
-----------------------|------------------------|--3----------3----------|--1----------1-----------|


                           >           >                                               >               
  E  Q    E  E  Q    E     E  E  E  E  E  E  E  E     E  Q    E  E  Q    E     E  Q    E  E  E  E  E   
------------------------|-----------3-----1-----0--|------------------------|----------------------0--|
------------------------|-----------1-----1--------|-------------3----------|--1-------------3--------|
-----4----4-----4----4--|--------2--------2--------|-----4----4-----4----4--|-----2----2-----2--------|
-----4----4-----4----4--|-----2--------------------|-----4----4-----4----4--|-----2----2-----2--------|
------------------------|--------------------------|------------------------|-------------------------|
--3----------3----------|--1-----------1-----------|--3----------3----------|--1----------1-----------|


                                                                                 (*
                                                                                  <      
  E  Q    E  E  E  E  E     E  E  E  E  E  E  E  E     E  E  E  E  E  E  E  E     Q      
-------------------------|--------------------------|--------------------------|-------||
-----3----3-----------3--|--------------1--------1--|--------------0-----------|--0----||
-----4----4--------4-----|--------2-----------2-----|-----------1-----------1--|-------||
-----4----4-----4--------|-----2-----2-----2--------|--------4-----------4-----|-------||
-------------------------|--------------------------|-----2-----------2--------|-------||
--3----------3-----------|--1-----------------------|--0-----------------------|-------||  fine.


Login or Register to remove this ad.

1 comment on Nostalgia

This is pretty amazing!

This is pretty amazing! Favorited, I might just add it to the list of songs I'll add to my youtube channel =)