Hoshi Furu Yoru no Ristorante (Solo Guitar) (Ristorante Paradiso) Guitar Tab

Submitted: Jul 20, 2014 by tomorning (Last updated: Apr 12, 2019)

5
Average: 5 (10 votes)
Download | Listen
Game: Ristorante Paradiso
Composer(s): ko-ko-ya
Style: Arrangement, Fingerstyle

AutoScroll: Slow | Medium | Fast
                                Hosi furu yoru no Ristorante
                                  (星降る夜のリストランテ)
             ~ from anime "Ristorante Paradiso (リストランテ・パラディーゾ)" ~

Music by Saeko Kurokawa (黒川 紗恵子) / ko-ko-ya (コーコーヤ)
arranged by to*morning


Standard tuning (E,A,D,G,B,E)
* m = upper mordent
              6/8
   
E|-------0h3-||-7---5---3m-2-|-5---3-------|-3---2-5---3-|-7-----------0h3--|
B|---0h1-----||---5-----1----|-------4---5-|---0-----4---|-----0---0h1------|
G|-----------||---5----------|---4-----4---|---0-----2---|---0--------------|
D|-----------||---5---0------|---4-----3---|-------------|-------2----------|
A|-----------||-0------------|-------4-----|-3-----2-----|------------------|
E|-----------||--------------|-3-----------|-------------|-0----------------|


|-7---5----3m-2-|-5---3---------|-3---2--5---3--|-0---------||
|---5------1----|--------4---5--|---0------4----|-----------||
|---5-----------|---4------4----|---0------2----|-----------||
|---5----0------|---4------3----|---------------|-2---------||
|-0-------------|--------4------|-3------2------|---2-------||
|---------------|-3-------------|---------------|-----3-0---||


|-2-0-----------|-------------|--------------|-----0-----0-|
|------0-3-1----|-0-----------|--------------|-0-------4---|
|---0---------0-|-----0---2-0-|-0----0-2---0-|---0---------|
|-2------0------|---2---------|---4------1---|-2-----1-----|
|---------------|-3-----2-----|-0------2-----|-------------|
|---------------|-------------|--------------|-------------|


|-2-0-------------|-------------|---------------2-|-0-----0-----|
|--------0-3-1----|-0-----------|-----------0-----|-----4---0---|
|------0--------0-|-----0---2-0-|---0---0h2---2---|---0--(0)--2-|
|-2--------0------|---2---------|-4---4-------1---|-2---------1-|
|-----------------|-3-----2-----|-0---------2-----|---------2---|
|-----------------|-------------|-----------------|-------------|


|-2-0-----------|-------------|-------------|-----0-----0-|
|------0-3-1----|-0-----------|-------------|-0-------4---|
|---0---------0-|-----0---2-0-|-0----0-2--0-|---0---------|
|-2------0------|---2---------|---4----1----|-2-----1-----|
|---------------|-3-----2-----|-0------2----|-------------|
|---------------|-------------|-------------|-------------|


|-2-0-------------|-------------|---------------2-|-------------0---||
|--------0-3-1----|-0-----------|-----------0-----|-4-------------7-||
|------0--------0-|-----0---2-0-|---0---0h2---2---|----4------4-----||
|-2--------0------|---2---------|-4---4-------1---|-------5---3-----||
|-----------------|-3-----2-----|-0---------2-----|-3-------0-4-----||
|-----------------|-------------|-----------------|-----------------||


|-----------7-10---8-|-8---7---5-4-|-7---5---3-2-|-5---3-2-0---|
|-10---8-10----------|---7-----3---|---5-----1---|-----------0-|
|----0-----------7---|---7---------|---5-----2---|-------------|
|--------------------|-------------|---5---0-----|---4---------|
|--------------------|-------------|-0-----------|-------3-----|
|--8-----------8-----|-7-----0-----|-------------|-3-----------|


|---------------|---0-2-3-2-0-|-7-------0-2-|-5---6.-7.-----0h3-||
|-------0-3---1-|-0-------0---|---0---4-----|---4-------0h1-----||
|-2-0-2-----2---|---------0---|---0-5-------|-------------------||
|---------------|-2-1-0-------|-------------|-3---4.-5.---------||
|-----0-1-2-----|-------4-----|-3-----0-----|-------------------||
|-2-------------|-------------|-------------|-------------------||


|-7---5---3m-2-|-5---3-----0--|-3---2-5---3-|-7-----------0h3-|
|---5-----1----|-------4------|---0-----4---|-----0---0h1-----|
|---5----------|---4-----4----|---0-----2---|---0-------------|
|---5---0------|---4-----3----|-------------|-------2---------|
|-0------------|-------4------|-3-----2-----|-----------------|
|--------------|-3------------|-------------|-0---------------|


|-7---5---3m-2-|-5---3-----0-|-3---2-5---3-|-0-----------0h3-|
|---5-----1----|-------4-----|---0-----4---|-----0---0h1-----|
|---5----------|---4-----4---|---0-----2---|---0-------------|
|---5---0------|---4-----3---|-------------|-2---------------|
|-0------------|-------4-----|-3-----2-----|-----------------|
|--------------|-3-----------|-------------|-------0---------|


|-7---5---3m-2-|-5---3-----0-|-3---2-5---3-|-7-----------0h3-|
|---5-----1----|-------4-----|---0-----4---|-----0---0h1-----|
|---5----------|---4-----4---|---0-----2---|---0-------------|
|---5---0------|---4-----3---|-------------|-------2---------|
|-0------------|-------4-----|-3-----2-----|-----------------|
|--------------|-3-----------|-------------|-0---------------|

                                             rit...fermete
|-7---5---3m-2-|-5---3-----0-|-3---2-5---3-|-0-----0----*|
|---5-----1----|-------4-----|---0-----4---|-------0----*|
|---5----------|---4-----4---|---0-----2---|-------0----*|
|---5---0------|---4-----3---|-------------|-2----------*|
|-0------------|-------4-----|-3-----2-----|---2--------*|
|--------------|-3-----------|-------------|-----3-0----*| fine.

Login or Register to remove this ad.

9 comments on Hoshi Furu Yoru no Ristorante (Solo Guitar)

Great Tab

5

I love Ko-Ko-Ya's music style and this arrangement does them justice for this song.

Amazing arrangement and very fun to play. Definitely my favorite tab recently on this site. More please!

You should check out

You should check out tomorning's tabs for Choro Club. Shigeharu Sasago from that group is also in Ko-Ko-Ya

Here's a list of their songs, mostly from Aria http://www.gametabs.net/composer/2898

Thanks replay.I doin daily

Thanks replay.

==========================
wrong fingelin

6-bars                 17-bars
|-7---5----3m-2-|     |-0-----0-----|
|---5------1----|     |-----4---0---|
|---5-----x1x---|     |---0--(0)--2-|
|---5----0------|     |-2---------1-|
|-0-------------|     |---------2---|
|---------------|     |-------------|

25-bars                 37,45 -bars
|-------------0---||     |-7-----------0h3-|
|-4-------------7-||     |-----0---0h1-----|
|----4------4-----||     |---0-------------|
|-------5---3-----||     |-------2---------|
|-3-------0-4-----||     |------x2x--------|
|-----------------||     |-0---------------|

38 -bars
|-7---5---3m-2-|
|---5-----1----|
|---5----------|
|---5---0------|
|-0----x0x-----|
|--------------|

Why not edit the original?

Why not edit the original?

That's it fixed now

That's it fixed now

Oo I feel like a celebrity

Oo I feel like a celebrity just replied to me :o

Dragonborn comes is the first 'real' song I learned on the guitar. It still isn't 100% but getting there. Nice work :D

I freakin love this!

5

I freakin love this!

Seriously, I've been

5

Seriously, I've been revisiting this song, I might play this for my performance tomorrow evening.

It's just......so awesome

Agreed! It's incredible how

Agreed! It's incredible how smooth and easy it is to play while sounding so good.