Login or Register to remove this ad.

Coalescence (Risk of Rain) Guitar Tab

Submitted: May 15, 2017 by EvilDuck

5
Average: 5 (1 vote)
Download | Listen
Game: Risk of Rain
Composer(s): Chris Christodoulou
Style: 2 or more instruments, Transcription

AutoScroll: Slow | Medium | Fast
Risk of Rain
Coalescence
Chris Christodoulou

Tab by EvilDuck
may 2017

Riff

e---------------------------------------------------------------------------------
B----8---8---8---8---7---7---7---7---6---6---6---6---4---4---4---4---4---4---4---4
G------7-------7-------7-------7-------5-------5-------5-------5-------5-------5--
D---------------------------------------------------------------------------------
A---------------------------------------------------------------------------------
E--6-------6-------5-------5-------4-------4-------3-------3-------4-------4------

e--------------------------------------------------|
B----4---4---4---4---3---3---3---3---3---3---3-----|
G------5-------5-------2-------2-------4-----------|
D--------------------------------------------------|
A--------------------------------------------------|
E--3-------3-------2-------2-------3-------3---5---|

Theme

e--------5-3---------------4-3----------------3-1---------------------------1-3---
B--3----------3-1-----3---------3-1-----1-----------3-1---------1-3-----1-3-------
G-----------------------------------------------------------0-2-------------------
D---------------------------------------------------------------------------------
A---------------------------------------------------------------------------------
E---------------------------------------------------------------------------------

e--------5-3---------------3-1----------------------------------------------1-3---
B--3----------3-1-----1---------3-1-----1-----4-3---------------1-3-----1-3-------
G---------------------------------------------------1-0-------0-------------------
D-----------------------------------------------------------3---------------------
A---------------------------------------------------------------------------------
E---------------------------------------------------------------------------------
Login or Register to remove this ad.

1 comment on Coalescence

Thanks so much

5

I LOVE this soundtrack, and I hope more people look into it for tabbing. Thanks for the work !