Pirate Town Part 2 (Risen 2: Dark Waters) Guitar Tab

Submitted: Dec 27, 2016 by IkuinenOnni

5
Average: 5 (1 vote)
Download | Listen
Game: Risen 2: Dark Waters
Composer(s): Tilman Sillescu
Style: Arrangement, Fingerstyle

AutoScroll: Slow | Medium | Fast
                           The Pirate Town (Part 2)                             


Nylon Guitar
     Hit the body of guitar with some more or less rand                      
     W                                                     W                 
E||-----------------------------------------------------|-------------------|
B||--1--------------------------------------------------|--L----------------|
G||--2--------------------------------------------------|--L----------------|
D||--3--------------------------------------------------|--L----------------|
A||-----------------------------------------------------|-------------------|
D||--0--------------------------------------------------|--L----------------|


  W                   W                   Q.     E  H         
-------------------|-------------------|---------------------|
--1----------------|--L----------------|--1------------------|
--2----------------|--L----------------|--2---------2--------|
--3----------------|--L----------------|--3---------3--------|
-------------------|-------------------|---------------------|
--0----------------|--L----------------|--0------0-----------|


  Q.     E  Q.     E     Q.     Q.     E  E     W                 
----------------------|----------------1--0--|--L----------------|
----------------------|----------------------|-------------------|
--L---------3------0--|--2-------------------|-------------------|
--L---------5---------|--3-------------------|-------------------|
----------------------|----------------------|-------------------|
---------0------------|--0------0------------|-------------------|


  Q.     E  H           Q.     E  H           Q.     H        E   
---------------------|---------------------|---------------------|
--1------------------|---------------------|---------------------|
--2---------2--------|--L------------------|---------------------|
--3---------3--------|--L---------2--------|--3------------------|
---------------------|------------3--------|--5------------------|
--0------0-----------|---------0--5--------|--0------0--------L--|


  E  E  E  E  E  E  E  E     Q.     E  Q    E  E     Q    Q    Q    E  E   
--0--1--0--1--3--5--0--1--|------------5----------|------------6-------3--|
--------------------------|--3---------3----------|--1----1---------------|
--------------------------|------------2----------|-----------------------|
--------------------------|-----------------------|-----------------0-----|
--------------------------|---------0-------0-----|--3----3---------------|
--L-----------------------|--0-----------------0--|--3---------5----------|


  Q    E  Q    E   E   E     Q    E  E  Q    Q       Q.     E  E  Q.      
--5-----------------------|------------------3----|---------0--1---------|
--------------------------|-------------1----5----|--3-------------------|
--------------------------|-----------------------|--3------3------------|
----------0----2h--3p--2--|--L--------------------|--3-------------------|
-------0------------------|-------------3----3----|--1------------1------|
--0-----------------------|-------0--0------------|----------------------|


  Q    E  Q    E  Q       E   E  E  Q    E   E  E     Q.     Q.     E   E   
-------0---------------|---------------------------|--1--------------------|
--1----1----------1----|--1h--3-----3--------------|--3--------------------|
-------2---------------|------------------------2--|-----------------------|
--2-------2-------2----|------------0----2h--3-----|---------0-------------|
--0------------0-------|---------0-----------------|----------------0h--3--|
-----------------------|--0------------------------|-----------------------|


  H        E  E   E  E     E   E  E   E  E   E  E  E    
------------------------|----------------0h--3---------|
------------------------|---------1h--3------------1h--|
------------------------|--0h--2----------------2------|
--0------------------0--|------------------------------|
--------------0h--3-----|------------------------------|
--0--------5------------|------------------------------|


  E  E  E  E  E  E  E  E     E  E  E  E  E  E  E  E   
-----5-----6-----3--5-----|-----1-----3-----0--1-----|
--3--------------------3--|-----------------------3--|
--------2-----2-----------|--2-----2-----2-----------|
--------------------------|-----0--------------------|
--------------------------|--------------------------|
-----0--------------------|--------------------------|


  E  E  E  E  E  E  E  E     E  E  E  E  E  E  E  E   
-----5-----6-----3--5-----|-----1-----3-----0--1-----|
-----------------------3--|-----------------------3--|
--2-----2-----2-----------|--2-----2-----2-----------|
--------------------------|-----0--------------------|
--------------------------|--------------------------|
-----0--------------------|--------------------------|


  E  E  E  E  E  E  E  E     E   Q     Q    E   E  E   
-----5-----6-----3--5-----|-----10----12----8--10-----|
-----------------------3--|-----------11-----------3--|
--2-----2-----2-----------|--2------------------------|
--------------------------|------0--------------------|
--------------------------|-----------10--------------|
-----0--------------------|---------------------------|


  E  E  E  E  E  E  E  E     E  E   E  E  E  E  E  E     E  H.           E   
-----5-----3-----0--1-----|---------------------------|---------------------|
--------------------------|------------------------3--|---------------------|
--2-----2-----2--------2--|--L--2p--0--------------2--|---------------------|
--------------------------|------------3--2--0--------|-----0------------0--|
--------------------------|---------------------3--0--|---------------------|
-----0--------------------|---------------------------|--0------------------|


  E  E  E  E  E  E  E  E     H        E  E  E  E     E  E  E  E  E  E  Q     
-----0--1--0--------------|-----------------0--1--|--0--1--3--5--0--1-------|
--3-----------3--1--3-----|-----------3-----------|--------3-----------3----|
--------------------------|--------------2--------|--------------------2----|
--------------------------|--0--------------------|-------------------------|
--------3-----3--------0--|-----------------------|-------------------------|
--------------------0-----|-----------------------|--------------------0----|


  E  Q    E  E  Q    E     E  E  Q    Q     E  E     E  Q.     E  E   E   E   
-----5-------3--5----5--|--------6----8----10-----|------------------13--12--|
-----3------------------|-------------------------|------------------10---8--|
-----2------------------|-------------------------|-----7------7-------------|
-----0------------------|--3----------------------|--0--7---------7----------|
--0-------0-------------|-----3-------7--------0--|--------------------------|
------------------------|--------5----------0-----|--------------------------|


   E  E  Q    Q    Q       E  Q    E  E  E  Q       E  Q    E  Q    E   E   
--10--8--5----3----5----|--L----------------1----|--L--0-------------------|
---6--5--3--------------|-----3-------------3----|--L--1-------1----1h--3--|
------------------------|-----3------------------|-------------2----2------|
---0--------------------|----------3-------------|-----2-------------------|
---------3----3----1----|--L--1-------1--0--0----|--L-------0--------------|
------------------------|------------------------|------------------0------|


  E  H        Q.        Q.     E  E  Q.        Q    Q    Q.     E   
--------------1------|--0-------------------|----------------------|
-----3--------3------|---------1-----3------|--L-------------------|
-----2---------------|--2------------2------|--L-------------------|
-----0---------------|------------0---------|------------3------2--|
--0------------------|----------------------|-------0--------------|
---------------------|----------------------|----------------------|


  Q    Q    H           Q    Q    Q.     E     H        E  Q    E   
---------------------|----------------------|----------------------|
---------------------|----------------------|--------------3-------|
---------------------|----------------------|--------------2-------|
--L------------------|------------3------2--|--L--------L--3-------|
-------3-------------|-------3----5---------|-------------------0--|
------------0--------|--L-------------------|----------------------|


  H        E  Q    E     Q.     Q    Q    E     H        E  Q    E   
--------------0-------|--------------1----L--|--L--------L----------|
----------------------|----------------------|--------------5-------|
--2--------L--0-------|--0-----------2----0--|--2--------L--5-------|
--0--------L--0-------|--0-------------------|--------------7-------|
-------------------0--|---------0----3-------|--3--------L-------5--|
----------------------|----------------------|--------------5-------|


  Q    E  Q    Q    E     Q.     E  E  Q    E     Q.     E  E  Q    E   
-----------------------|---------------0-------|---------------1-------|
--3------------3-------|---------------1-------|---------------3-------|
--0-------3----2-------|--2------------2-------|--2------------3-------|
---------------3-------|--0------0-------------|-----------------------|
-------0--1---------0--|------------0----------|--3------3-----1-------|
--5--------------------|--------------------5--|------------5-------0--|


  Q    E  E  E  Q    E     Q.     E  E  Q    E     Q    E  Q    Q    E   
----------0-------------|-----------------------|-----------------------|
-------------3--1-------|-----------------------|--3--------------------|
--2---------------------|--2--------------------|--2--------------------|
-------0----------------|---------------0-------|--0----2--3----0-------|
--1-------------1----1--|---------1--3--0----0--|---------------0----0--|
------------------------|---------------0-------|---------------0-------|


  Q    E  E  E  Q    E     Q    E  Q    Q.        Q    E  E  E  Q.      
------------------------|----------------------|-----------------------|
------------------------|----------------------|-----------------------|
----------------2-------|----------0-----------|-------------0--3------|
--0-------0-----2-------|-------0--3----2------|--0----2--3------------|
-------0-----0----------|--3------------3------|--2-------0-----1------|
--0------------------5--|----------------------|-----------------------|


  Q.     E  E  Q.        E  E  E  E  E  E  Q       H        Q    Q     
----------------------|-------------------------|-----------5----5----|
----------------------|-------------------------|-----------3----3----|
--2------0------------|-------------------------|-----------2----2----|
--3---------3--2------|--L--L--L--L--L--L--0----|--L--------0----0----|
---------------0------|--L--L--L--L--L--L-------|---------------------|
----------------------|--------------------0----|--L------------------|


  Q    E  E  E  E  Q       E  E  E  E  Q.     E     E  Q    E  E  E  Q     
--5----5--5--5--3--5----|--L---------------------|------------------------|
--3----3--3--0-----3----|--L--0--------1---------|-----1----3--3----------|
--2----------2----------|--------2--0--2------0--|--L---------------------|
--0----0----------------|---------------------0--|--L---------------------|
------------------------|--------------3---------|-----3-------0-----0----|
-------------0----------|------------------------|----------------0-------|


  E  E  E   E  Q    E  E     H        Q    E  E     H        Q    E  E   
--------3h--5--6----6--3--|--L--------5----5--1--|--L--------8----8--5--|
--------------------------|-----------6----6--3--|--L--------6----6--3--|
---------------2----------|-----------7----------|-----------7----7-----|
---------------0----------|-----------0----------|----------------------|
--L--L--------------------|----------------------|----------------------|
--------------------------|----------------------|----------------------|


  H         H            Q    E  E  Q.     E     E  Q.     Q.     E   
--L--------10--------|---L--------------------|----------------------|
--L--------10--------|---L--------------------|----------------------|
-----------10--------|---L----0--2--3------0--|--L---------2---------|
------------0--------|---L-----------------0--|--L----------------3--|
---------------------|------------------------|-----1------3---------|
---------------------|--------------5---------|----------------------|


  E  Q    Q.     Q       Q    E  H        E     Q.     E   E  E  E  E   
----------------------|----------------------|---------1p--0-----------|
-----1----------------|--1----3--3--------L--|--L-------------3--1--3--|
----------2------2----|----------2--------L--|--L-------------------2--|
--L-------2------2----|----------0--------L--|--L-------------------3--|
----------------------|----------------------|---------0---------------|
----------------------|----------------------|-------------------------|


  W                   E   E  E   E  E  E  Q       W                  
-------------------|---------1p--0-------------|-------------------||
--L----------------|--1h--3---------3--1--3----|--L----------------||
--L----------------|----------------------2----|--L----------------||
--L----------------|----------------------3----|--L----------------||
-------------------|---------0-----------------|-------------------||
-------------------|---------------------------|-------------------||




Duration Legend
---------------
W - whole
H - half
Q - quarter
E - 8th
S - 16th
T - 32nd
X - 64th
. - note dotted
|-n-|  - n-tuplets


Tablature Legend
----------------
L - tied note
x - dead note
g - grace note
(n) - ghost note
> - accentuded note
NH - natural harmonic
AH - artificial harmonic
TH - tapped harmonic
SH - semi harmonic
PH - pitch harmonic
h - hammer on
p - pull off
b - bend
br - bendRelease
pb - preBend
pbr - preBendRelease
brb - bendReleaseBend
\n/ - tremolo bar dip
\n - tremolo bar dive
-/n - tremolo bar Release up
/n\ - tremolo bar inverted dip
/n - tremolo bar return
-\n - tremolo bar Release down
S - shift slide
s - legato slide
/ -  slide into from below or out of upwards
\ -  slide into from above or out of downwards
~ - vibrato
W - wide vibrato
tr - trill
TP - tremolo picking
T - tapping
S - slap
P - pop
< - fade in
^ - brush up
v - brush down
Login or Register to remove this ad.