Ads

Main Theme (Rick Dangerous) Guitar Tab

Submitted: Apr 15, 2010 by diralark

5
Average: 5 (1 vote)
Download | Listen
Game: Rick Dangerous
Composer(s): Ben Daglish
Style: Arrangement, Fingerstyle

AutoScroll: Slow | Medium | Fast

Main theme from Rick Dangerous (Atari ST, Amiga ..etc)

Music by Ben Daglish >> "RickDangerous.mid" (unknow arranger) >> tab. by Diralark

Guitar, tempo 96

     E.  T T      E  E  E  S T T    E  E  E  S T T    E  E  E  S T T    E  E  E  S T T  
E||----------||------------------|-----------------|-----0-----------|-----------------|
B||----------||------3-----------|--------0--------|-----2--2--------|--0--2--3--------|
G||----------||*-----2--2--------|--0--0--0--0---2-|--2--2--2--2---2-|--2--2--2--------|
D||--------0-||*--0--0--4--0---4-|--0--7--0------2-|--2------------2-|--2-----0--0---0-|
A||--------0-||---0-----5------0-|-----5-----------|-----------------|---------------0-|
E||----------||------------------|-----------------|-----------------|-----------------|

                                |1st ending
                                                                 III               II     
  E  E  E  S T T    E  E  E  E     Q    Q       E  E  Q       E  E   Q       E  E  E  E   
-----------------|--------------|--6----8----|-------------|---------3----|--0-----------|
-----3-----------|--------0-----|--6----8----|--3--3-------|--0--3---3----|--2-----2-----|
-----2--2--------|--0--0--0--0--|------------|-----2--2----|--0--4--------|--------2--2--|
--0--0--4--0---4-|--0--7--0-----|--0---------|--4-----0----|--------------|-----------2--|
--0-----5------0-|-----5--------|-------7----|--0----------|--------------|--0--0--0--0--|
-----------------|--------------|------------|-----2--2----|--3--3---3----|--------------|

                              
     III                II                                                                     
  E  E   E  E     E  E  E  E     E  E  E  E     E  E  E  E     E  E  E  E     E  E  E  S. T    
---------3-----|--5-----------|--------3-----|--0-----------|--------3-----|--5--------------||
--0--3---3-----|--5-----2-----|--0--3--3-----|--2-----2-----|--0--3--3-----|--5-----2--------||
--0--4---------|--------2--2--|--0--4--------|--------2--2--|--0--4--------|--------2--2----*||
---------------|-----------2--|--------------|-----------2--|--------------|-----------2--0-*||
---------------|--0--0--0--0--|--------------|--0--0--0--0--|--------------|--0--0--0--0--0--||
--3--3---3--3--|--------------|--3--3--3--3--|--------------|--3--3--3--3--|-----------------||

|2nd ending
                              VIII            V     VII(3)        VIII             X               
  Q    Q       E  E  Q        E   E  E  E     E  E  E      E      E   E  E  E      E   E   E   E   
--1----3----|--2--5-------|----------8-----|--5---------------|----------8-----|--10--------------|
-------1----|-------------|-------8--8-----|--7-----7---------|-------8--8-----|--10--------------|
--3---------|-------------|---9---9--------|--------7------7--|---9---9--------|----------11------|
--0----2----|--0--0--4----|--10------------|---------------7--|--10------------|----------12--12--|
------------|--0-----5----|----------------|--5--5--5------5--|----------------|--------------12--|
------------|-----2--5----|---8---8--8--8--|------------------|---8---8--8--8--|--10--10--10--10--|


   VIII            V     VII(3)        VIII             X                    --                
   E   E  E  E     E  E  E      E      E   E  E  E      E   E   E   S. T     E   E   E  S T T  
----------8-----|--5---------------|----------8-----|--10----------------|--------------------|
-------8--8-----|--7-----7---------|-------8--8-----|--10----------------|-----------0------0-|
---9---9--------|--------7------7--|---9---9--------|----------11--------|------12---0--0-----|
--10------------|---------------7--|--10------------|----------12--12----|------12--12------0-|
----------------|--5--5--5------5--|----------------|--------------12-10-|--10--10------------|
---8---8--8--8--|------------------|---8---8--8--8--|--10--10--10--10-10-|--10----------------|


  E  E  E  S T T    E  E  E  S T T    E  E  E  S T T     E   E   E  S T T    E  E  E  E   
-----------------|-----5-----------|--0-----3--------|--------------------|--------------|
-----3--5--------|-----7--7--------|-----7--3--------|-----------0------0-|-----3--5-----|
--5--5--5--5---7-|--7--7--7--7---7-|--7--7--0--0---0-|------12---0--0-----|--5--5--5--5--|
--5--5--5------7-|--7------------7-|--7------------0-|------12--12------0-|--5--5--5-----|
-----------------|-----------------|-----------------|--10--10------------|--------------|
-----------------|-----------------|-----------------|--10----------------|--------------|


  E  E  E  E     E  E  Q      
--------1-----|-------------||
--4-----------|-------------||
--0-----2-----|--0--0--0----||
--------------|--0-----0----||
--------------|-----2-------||
--------------|-------------||

Legend
---------------
with VII(3) notation, I mean a bar chord using my finger number 3 on 7th bar
Q - quarter
E - 8th
S - 16th
T - 32nd
. - note dotted

Login or Register to remove this ad.