Login or Register to remove this ad.

Wishing (Re:ZERO -Starting Life in Another World-) Guitar Tab

Submitted: Nov 02, 2017 by tomorning

5
Average: 5 (4 votes)
Download | Listen
Game: Re:ZERO -Starting Life in Another World-
Composer(s): Kenichiro Suehiro
Style: Arrangement, Fingerstyle, Natural harmonics

AutoScroll: Slow | Medium | Fast

Nov.11 / 2017

                                               Wishing

                         ~ from anime "Re:ゼロから始める異世界生活" ~
                           (Re:ZERO -Starting Life in Another World- )


Andante ( Q = 76 )

Drop D with Capo 2

     >                                                                                                         
                                                 |--3--|  |--3--|                                              
     W                   Q.     E  Q    E  E     E  E  E  E  E  E  E    E  E  E     S S E  H        S  S S  S  
E||--5----------------|--0---------7-------5--|--5--------------0--3--3g2--0-----|------0-----------2p-0-2h-3-|
B||--3----------------|--0------0-------------|-----3--3----------------------3--|---------3------------------|
G||-------------------|--0------0-------------|--------------2-------------------|----2-----------------------|
D||--4----------------|-----------------------|-----------0----------------------|----------------------------|
A||--2----------------|-----------------------|--2-----------------0-------------|------------------4---------|
D||-------------------|--5--------------4-----|----------------------------------|--0-------------------------|


                                                                                              NH    
  E  E  E  E  Q    E  E     E  S S H        E  E     E  E  Q    E  E    E  E     E  E  Q      Q     
--5-------------------0--|--0----5----------0-----|---------------------------|--------0-----------||
-----------3-------3-----|-----0---------------3--|--3----------------2g3--2--|--3-----------------||
--------2----------0-----|------------------4-----|--------0------------2-----|--2-----------<7>---||
-----4-------------------|------------------------|--------2-------2----------|-----0--------<7>---||
--2----------------------|------------------------|-----2-------0-------------|--------------------||
-------------------------|--5---------------4-----|--2------------------------|--0-----------------||


                                            |--3--|                                                          
  Q    E  S S E  E  E  S  S    H.           E  E  E     E.  S E  S S E    S S E  S S    E.  S H        Q     
-----------------2----------|------------------------|-------------------------------|------2---------------|
-------3--2-3---------------|---------------0--2--3--|-------------3-3--1g2-2----3---|------3---------------|
-------2---------------2S-4-|------------------------|------0----------------------2-|----------------------|
-------0------------0-------|------------------------|------------------------2------|--0-------------------|
--2-------------------------|------------------------|---------------0---------------|-----------------4----|
----------------------------|--5------------4--------|--2----------------------------|----------------------|


                                            |--3--|          |--3--|                                          
  Q    E  S S E  E  E  S  S    H.           E  E  E     Q    E  E  E  E  E  E  S  S    Q    E  E  E  E  Q     
-----------------2----------|------------------------|-------------------2----------|-------0----------------|
-------3--2-3---------------|---------------0--2--3--|-------0--2--3--------0--2h-3-|-------3-----3----------|
-------2---------------2S-4-|------------------------|-------0--------------0-------|----------2-----2-------|
-------0------------0-------|------------------------|------------------------------|------------------------|
--2-------------------------|------------------------|----------------0-------------|-------------------4----|
----------------------------|--5------------4--------|--2---------------------------|--0---------------------|


  E  E  E  S S E  E  E  S  S    E  E  E  S S E  E  E  S S    E  E  E  S S E  S S E  S S    E  E  E  E  Q    Q     
------------------2----------|-------------0--------------|-----------------------------|-----------0--2---------|
--------3--2-3---------------|--------0------------0--2-3-|-------------3-3--2-2----3---|--------3-----2----2----|
--------2---------------2S-4-|-----------0------0---------|--------0------------------2-|--------4-----2----2----|
-----0---------------0-------|-----0----------------------|-----0----------------2------|-----2------------------|
--2------------2-------------|----------------------------|---------------0-------------|-------------------4----|
-----------------------------|--5------------------4------|--2--------------------------|--0---------------------|


                                                   |---3--|           |--3--|                                          
  E  E  E  S S E  E  E  S  S    E  E  S S E  E  E  E  E   E     E  E  E  E  E  E  E  E  S  S    E  E  E  E  Q    Q     
------------------2-----6S-7-|--------0----------------------|--------------------2----------|-----------0------------||
--------3--2-3---------------|----------7----------0--2s--3--|--------0--2--3--------0--2h-3-|--------3-----3---------||
--------2--------------------|--------4---7--------0---------|--------0-----------2--0-------|--------0-----2---------||
-----0---------------0-------|-----0------------0------------|-----0-----------------0-------|-----0------------------||
--2------------2-------------|-------------------------------|-----------------0-------------|-------------------4----||
-----------------------------|--6------------6---------------|--5----------------------------|--0---------------------||


                                                                                                     NH      NH    
  E  E  E  S S E  E  E  E     E  E  E  S S E  E  E  E     E  E  E  E  E  E  E   E     E  E  E  S S   E  E    Q     
--------0--0-0----2--3--2--|-----------0---------------|--------1--1--1--0-----/2--|------------------------------|
--------1---------0--------|--------3----3-------3-----|--------3-----------3------|--------3-------<7>-----------|
--------0---------0--------|--------4------------4-----|--------0-----------0------|--------0----0----------<7>---|
-----2---------------------|-----4------------4-----4--|-----3---------------------|-----0-----0--------0---------|
--3------------3-----------|--2------------2-----------|--1-----------1------------|------------------------------|
---------------------------|---------------------------|---------------------------|--0---------------------------|


  E  E  E  S S E  S S E  E     E  E  E  S S E  S S S S S S    E  E  E  E  E  E  E    E     E  Q    E  E    Q    E   
----------------------------|--------2--2-2------------0---|-----------------0-----4g5--|-----3--------------------|
--------7--7-7----0-3-------|--------0---------0-3-------3-|--------3--3--3-----3-------|-----3----3---------------|
--------4----------------0--|--------0---------------------|--------0-------------------|-----3----3-----2g3----2--|
-----0------------0---------|-----0------------------4-----|--------2-----4-------------|--------------------------|
----------------------------|------------------------------|-----2----------------------|--------------------------|
--6------------6------6-----|--5------------5------4-------|--2-----------4-------------|--5----------5------------|


                            >                                                                              
                                                                                                  |--3--|   
  E  E  E  E  E  E  Q       Q    Q    Q    E  E      Q    E  S S E  E  Q       E  E  E  S S E  E  E  E  E   
--------------0----------|------------3----2-----||--0----------------------|--7--------5-5-------2--3--5--|
--------0-----------3----|--2---------2----2-----||--0-------3-3-------0----|--------0------------2--------|
-----------0-----4-------|------------3----3-----||--0----0------------0----|--------0------------2--------|
-----2-------------------|-----------------------||--0----0---------0-------|-----0------------4-----------|
--0----------------------|--0--------------------||-------------------------|---------------2-----0--------|
-------------------------|------------4-------4--||--5-----------5----------|--4---------------------------|


                                                                                                      |---3--|   
  E  S S E  E  E  E  E  E     E  E  E  S S Q    Q       Q    E  S S Q    E  S S    E  E  E  S S Q     E   E  E   
--5--3-2----3--2--0--3--2--|--0--------2-------------|--0-----------------------|--7--------9-5-------2---3--5--|
---------0-----0-----2-----|-------------3-----------|-------0----------------0-|--------0-----------(0)--------|
---------0-----------3-----|--------0-----------2----|----------7-7------0------|--------0------------0---------|
---------------------------|-----4--------------4----|-------6-----------0------|-----0-------------------------|
---------------------------|--2------------0---------|--------------------------|---------------2---------------|
--2------------4-----------|--------------------0----|--6-----------5-----------|--4------------------3---------|


                                  |--3-|                                                               |--3--|   
  E  S S E  E  Q    E  E     Q    Q    E  Q    E  E     E  E  E  E  E  E  E  S S    E  E  E  S S E  E  E  E  E   
--5--------------------2--|--0-----------------------|--------0-----------0------|--------5------0--------3--5--|
-----3-3-------3----------|---------------2-------3--|--3-----------3----------0-|--3----------3-------7--------|
---------------0----------|------------2-------------|-----2-----2-----------0---|-----------0------0-----------|
------------2-------------|--------------------------|-----------------0---------|-----0------------------------|
---------2----------------|--0-----------------------|--2-----------2------------|------------------------------|
--2-----------------------|--------------------------|---------------------------|--5------------------4--------|


  E  S S E  E  E  E    E  E     E  S S E  E  E  E  Q       E  E  E  E  E  S S E  E     E  S S E  E  E  E    E  E   
--5--------------------------|------------0-------------|--------------0------0-----|--0------2-------------------|
-------3-------------2g3--2--|--3------3-----3-----2----|--0-----3----------0----0--|------------3--------3g5--3--|
---------0-------------0-----|-------2----------2-------|-----------2-----0---------|-------0-------0-------------|
-----4------4-----2----------|-----4---------0----------|-----0---------------------|-----0------------0----------|
---------------0-------------|--------------------------|--2------------------------|-----------------------------|
--2--------------------------|--0-----------------------|---------------------------|--5--------------------4-----|


                                                                                                            |--3--|   
  E  E  E  E  E  E    E  E     E  S S E  E  Q    Q        E  E  E  S S S S E  E  S  S    E  E  E  S S E  E  E  E  E   
----------------------------|------------0------------||-------------------2----------|-------------0----------------|
--3-----------------2g3--2--|--3------3-----3---------||--------3--2-3----------------|--------0------------0--2--3--|
-----------0-----2----------|--2----2-----------------||--------2--------2-------2S-4-|-----------0------0-----------|
--------2-------------------|-----0-------------------||-----0---------0------0-------|-----0------------------------|
-----2--------0-------------|--------------------4----||--2---------------------------|------------------------------|
--2-------------------------|--0----------------------||------------------------------|--5------------------4--------|


  E  E  E  S S E    S S S S S S    E  E  E  S S S S E  E  E     E  E  E  S S S S E  E  S  S  
--------------------------------|-------------2--------------|-------------------2-----6S-7-|
-------------3-3--1g2-2-----3---|--------3----------2--------|--------3--2-3----------------|
--------0-----------------2---2-|-----2-----2-----2----------|--------2--------2------------|
-----0------------------2-------|--0----------------------0--|-----0----------------0-------|
---------------0----------------|----------------------4-----|--2------------2--------------|
--2-----------------------------|----------------------------|------------------------------|


        |--3--|        |---3--|           |--3--|        |--3--|                            
  E  E  E  E  E  E  E  E  E   E     E  E  E  E  E  E  E  E  E  E     E  E  E  E  Q    Q     
--------0------------------------|--------------------2-----------|-----------0------------||
-----------7-----------0--2s--3--|--------0--2--3--------0--2--3--|--------3-----3---------||
--------4-----7--------0---------|--------0--------------0--------|--------0-----2---------||
-----0--------------0------------|-----0-----------------0--------|-----0------------------||
---------------------------------|-----------------0--------------|-------------------4----||
--6--------------6---------------|--5-----------------------------|--0---------------------||


  E  E  E  S S S S E  E  E     E  E  E  S S E  E  E  E     E  S S E  E  E  E  E   E     E  E  E  E  E  E  E  E   
--------0--0-0-----2--3--2--|-----------0---------------|---------1--1--1--0-----/2--|--------------2--0--------|
--------1----------0--------|--------3----3-------------|---------3-----------3------|--------3-----3-----3-----|
--------0--------0----------|--------4------------0-----|-------0-------------0------|-----------2--0--------2--|
-----2----------------------|-----4------------4-----4--|-----3----------------------|-----0--------------------|
--3------------3------------|--2------------2-----------|--1------------1------------|--------------------------|
----------------------------|---------------------------|----------------------------|--0-----------0-----------|


  E  E  E  S S E  S S E  E     E  E  E  S S E  S S S S S S    E  E  E  S S E  E  E    E     E  Q    E  E    Q    E   
--------2--2-2--------------|--------2--2-2------------0---|------------------0-----4g5--|-----3--------------------|
--------0---------0-3-------|--------0---------0-3-------3-|--------3--3-3-------3-------|-----3----3---------------|
-------------------------0--|--------0---------------------|--------0------2-------------|-----3----3-----2g3----2--|
-----0------------0---------|-----0------------------4-----|--------2------4-------------|--------------------------|
----------------------------|------------------------------|-----2-----------------------|--------------------------|
--6------------6------6-----|--5------------5------4-------|--2--------------------------|--5----------5------------|


                                                  >                                                                     
                                                                                                               |--3--|   
  E  E  E  S S E  S S Q       S  S S  S S  S S  S Q    E  E      Q    E  S S E  E  E  E     E  E  E  S S E  E  E  E  E   
---------------------------|-----------------2p-0-3----2-----||--0-----------------------|--7--------5-5-------2--3--5--|
--------0------3------2----|-------2p-0-3p-2------2----2-----||--0-------3-3-------0-----|--------0------------2--------|
--------2----2------2------|--2h-4----------------3----3-----||--0----0------------0-----|--------0------------2--------|
-----2-----2------2--------|----------------------4----------||--0----0---------0-----0--|-----0------------4-----------|
--0------------------------|--0---------0--------------------||--------------------------|---------------2-----0--------|
---------------------------|------------------------------4--||--5-----------5-----------|--4---------------------------|


                                                                                                          |---3--|   
  E  S S E  E  E  E  E  E     E  E  E  S S E  E  E  E     E  E  E  S S E  E  E  S S    E  E  E  S S Q     E   E  E   
--5--3-2----3--2--0--3--2--|--0--------2---------------|--0-------------------------|--7--------9-5-------2---3--5--|
---------0-----0-----2-----|-------------3-------------|--------0-----------------0-|--------0-----------(0)--------|
---------0-----------3-----|--------0------------2-----|-----------7-7-------0------|--------0------------0---------|
---------------------------|-----4------------4-----0--|-----6------------0---------|-----0-------------------------|
---------------------------|--2------------0-----------|----------------------------|---------------2---------------|
--2------------4-----------|---------------------------|--6------------5------------|--4------------------3---------|


  E  S S E  E  Q    E  E     E  E  E  E  Q    E  E      E  E  E  S S E  S S E  E     E  E  E  S S S S E  E  S S  
--5--------------------2--|--0----------------------||----------------------0-----|-----0--0--2-3-----2--0------|
-----3-3-------3----------|--------------2-------3--||--3------------3----3-------|--------0--------0----0--3-3-|
---------------0----------|--------0--2-------------||--------2----2----2------2--|--------2------0------0------|
------------2-------------|-----2-------------------||-----0-----0----------------|----------------------2------|
---------2----------2-----|--0----------------0-----||--2-------------------------|--0--------------------------|
--2-----------------------|-------------------------||----------------------------|-----------------------------|


  >                                                                                                                
  E  E  E  E  E  E  E  S S    E  E  E  S S E  E  S S E     E  E  E  S S E  E  E  E     E  E  E  S S S S E  E  S S  
---------------------------|-----0--0--2-3----2--0---2--|---------------------2-----|-----0--0--2-3-----5--0------|
--0--5-----3---------------|--------0------0-----0-3----|--------3------3--------3--|--------0--------0----0--3-3-|
--0--------0--------0------|--------2------0-----0------|--------4----4----4--------|--------2------0------0------|
-----4-----2--------2----2-|---------------------2------|-----4-----4---------------|-----------------------------|
--------x------------------|--0-------------------------|--2------------------------|--0--------------------------|
--5--4-----2-----2-----2---|----------------------------|---------------------------|-----------------------------|


  >                                                         NH     NH     NH     NH        NH     NH     NH        
  E  E  E  E  E  E  E  E     E  E  E  S S E  E  S S E       Q      Q      Q      Q         Q      Q      H         
--------------------0-----|-----0--0--2-3----2--0------|------------------------------|---------------------------||
--0--5-----3-----------0--|--------0------0------------|------------------------------|---------------------------||
--0--------0-----------0--|--------2------2-------7----|------------------------------|---------------------------||
-----4-----2--------------|---------------------7------|---<7>----<7>----<7>----<7>---|---<7>----<7>----<7>-------||
--------x-----------------|--0-------------------------|---<7>----<7>----<7>----<7>---|---<7>----<7>----<7>-------||
--5--4-----2-----2--------|-------------------------0--|------------------------------|---------------------------||


                                         |--3--|                                                      
  Q.     S S H           Q.     S S Q    E  E  E     E  S S E  S S E  E  S S E     H        H         
--0-------------------|--7------2-5------2--0-----|--0----0----2-3----5--0---2--|-----------0--------|
--3------3-3----------|--5----------3----0-----3--|-----3------------------3----|--2--------0--------|
--2----------0--------|--6----------4----2--------|--0-------------2------------|--2-----------------|
--0----------2--------|--4------------------------|-----------------------------|--4-----------------|
----------------------|---------------------------|-----------------------------|-----------2--------|
----------------------|---------------------------|-----------------------------|--------------------|


                                             ^                                                                   
                                             |--3--|                                                             
  Q    E  S S Q    E  E     Q    E  S S Q    E  E  E     E  E  E  S  S E  S  S E  S S    E.  S Q    E  E  E  E   
--0----------------------|--7-------9-5------2--0-----|---------------------------7-5-|-------------3-----2-----|
----------3-3---------0--|-------------------3-----3--|--3--------3p-0----3p-0--------|------5------2-----2-----|
-------2-----------------|-------0-----------2--------|--------0-------0-------0------|-------------3-----3-----|
-------4-----------2-----|-------0-----------4--------|-----2----------2-------0------|------5------------------|
-------------------4-----|--------------2-------------|-------------------------------|--0----------------------|
--5-----------5----------|--4-------------------------|--2----------------------------|-------------4--4-----4--|


  >           >              >                              >            >              >            >            
                                                |--3--|                                                           
  Q    E  S S E  E  E  E     E  E  E  S S E  E  E  E  E     E  S S E  E  E  E  E  E     E  E  E  S S E  E  E  E   
--0-----------------------|--7--------5-5-------2--3--5--|--5--3-2----3--2--0--3--2--|--0--------2---------------|
--0-------3-3-------0-----|--------0------------2--------|---------0-----0-----2-----|-------------3-------------|
--0----0------------0-----|--------0------------2--------|---------0-----------3-----|--------0------------2-----|
-------0---------0-----0--|-----0------------4-----------|---------------------------|-----4------------4-----0--|
--------------------------|---------------2-----0--------|---------------------------|--2------------0-----------|
--5-----------5-----------|--4---------------------------|--2------------4-----------|---------------------------|


  >            >               >            >                  >                 >        >                       
                                                  |---3--|                                                        
  E  E  E  S S E  E  E  S S    E  E  E  S S Q     E   E  E     E  S S E  E  Q    E  E     E  E  E  E  Q    E  E   
--0-------------------------|--7--------9-5-------2---3--5--|--5--------------------2--|--0----------------------||
--------0-----------------0-|--------0-----------(0)--------|-----3-3-------3----------|--------------2----------||
-----------7-7-------0------|--------0------------0---------|---------------0----------|--------0--2----------7--||
-----6------------0---------|-----0-------------------------|------------2-------------|-----2-------------------||
----------------------------|---------------2---------------|---------2----------2-----|--0----------------0-----||
--6------------5------------|--4------------------3---------|--2-----------------------|-------------------------||


  E  E  E   E  E  E  E   E     E  E  E  S S E  E  E  S S    E  E  E  E  E  E  E  E     E  E  E  E  E  E   E  E   
--------0------------0------|---------------0--------2---|--------------0-----------|-----------5-----5---0-----|
-----------10-----------10--|-------------0------------3-|-----------3--------2-----|--------5------------------|
--7-------------------------|--------7------------2------|--------2--------2-----2--|--7-----------7---------7--|
-----7------------7---------|-----7-----7------2---------|-----2--------------------|-----7---------------------|
----------------------------|----------------------------|--------------0-----------|---------------------------|
--9------------9------------|--5------------5-----4------|--2-----------------------|--0-----------------11-----|


                                                                                                                 <      
  E  E  E   E   E  E  E   E     E  E  E  E  E  E  E  E     E  E  E  E  E  E  E  E     E  E  E  E  E  E  E  E     Q      
--------0-------------0------|-----------5-----------5--|-----------------------5--|-----------5-----5--0-----|-------||
-----------10------------10--|--------5-----------5-----|--3-----------------5-----|--------5-----------------|-------||
--7--------------------------|--7-----------------------|--------2-----7-----------|--7-----------7--------7--|-------||
-----7-------------7---------|-----7-----------7--------|-----0-----0-----7--------|-----7--------------------|-------||
-----------------------------|--------------------------|--------------0-----------|--------------------------|-------||
--9-------------9------------|--5-----------5-----4-----|--2-----------------------|--0-----------------------|-------||  fine...

Login or Register to remove this ad.

3 comments on Wishing

amezing!!!!!!

amezing!!!!!!

Oh this song is going to kick

Oh this song is going to kick my ass, but dang it I'ma learn it.

This is really good =)

5

This is really good =)