Ads

Wish of the Stars (Re:ZERO -Starting Life in Another World-) Guitar Tab

Submitted: May 18, 2017 by tomorning

5
Average: 5 (4 votes)
Download | Listen
Game: Re:ZERO -Starting Life in Another World-
Composer(s): Kenichiro Suehiro
Style: Arrangement, Fingerstyle, Natural harmonics

This song is also called Hoshi no Negai

AutoScroll: Slow | Medium | Fast
                                            Hoshi no negai
                                               (星の願い)
                         ~ from anime "Re:ゼロから始める異世界生活 ~
                           (Re:ZERO -Starting Life in Another World- )

Music by Kenichirou Suehiro ( 末廣 健一郎 )
arranged by to*morning

 4/4
Standard Tuning

     Q     Q     Q.     E      W                   Q    Q     Q.     E      W                 
E||--8----10----12------8--|--------------------|--7----8----10------7--|---8----------------|
B||------------------------|--10----------------|--8----------9---------|--10----------------|
G||------------------------|--10----------------|-----------------------|--------------------|
D||------------------------|--------------------|-----------------------|--------------------|
A||------------------------|--------------------|-----------------------|--------------------|
E||------------------------|--------------------|-----------------------|--------------------|


   Q     Q     Q.      E      H         H            Q     Q     Q.      E   
--------10----12----------|--15--------13--------|--------------13------10--|
--13------------------13--|----------------------|--------12----------------|
--------------------------|--10------------------|--12----------------------|
--------------------------|----------------------|--------------------------|
--------------------------|----------------------|--------------------------|
--------------------------|----------------------|--------------------------|


   H         H            H        Q    Q       W                   H        Q.     E   
--13--------12--------|-----------------3----|--5----------------|--7--------5------7--|
--13------------------|------------6---------|-------------------|-----------0---------|
----------------------|----------------------|-------------------|--0------------------|
----------------------|----------------------|--3----------------|---------------------|
----------------------|----------------------|-------------------|---------------------|
----------------------|----------------------|-------------------|---------------------|


  H         H            H         Q     Q        Q     Q     Q     Q     
--8--------10--------|--12--------------15----|--15----------------12----|
------------8--------|------------------------|--15----------15----------|
---------------------|------------12----------|--------14----------------|
--7---------9--------|--10--------------------|--12----------------------|
---------------------|------------------------|--------------------------|
---------------------|------------------------|--------------------------|


               NH               NH      NH      NH      NH         NH                 
   H           Q     Q          Q       Q       Q       Q          H.           Q     
--13----------------12----|--<12>----------------------------|----10-----------------|
--------------------------|--------------------------<12>----|-----------------------|
--14--------<12>----------|------------------<12>------------|-----------------------|
--------------------------|----------<12>--------------------|-----------------------|
--------------------------|----10----------------------------|-----------------------|
--------------------------|----------------------------------|-----------------------|


  Q    Q    Q.     E     W                   Q    Q    Q.     E     W                 
------------0---------|-------------------|----------------------|-------------------|
--1----3-----------1--|-------------------|--0----1----3------0--|--1----------------|
----------------------|--2----------------|--0---------1---------|--2----------------|
----------------------|--3----------------|----------------------|-------------------|
----------------------|-------------------|----------------------|-------------------|
----------------------|-------------------|----------------------|-------------------|


  Q    Q    Q.     E     H        H           Q    Q    Q.     E     H        H         
------------0---------|--3--------1--------|------------1---------|--1--------0--------|
--1----3-----------1--|--------------------|-------0-----------3--|--------------------|
----------------------|--2-----------------|--0-------------------|--------------------|
------------2---------|--0-----------------|----------------------|--------------------|
--3-------------------|--------------------|--2-------------------|--3-----------------|
----------------------|--------------------|----------------------|--------------------|


  H        Q    Q       W                   H        Q.     E     H        H         
---------------------|-------------------|---------------------|--------------------|
---------------------|-------------------|--0---------------0--|--1--------3--------|
----------------0----|--2----------------|-----------2---------|-----------0--------|
-----------3---------|-------------------|---------------------|--------------------|
---------------------|-------------------|-----------2---------|--0--------2--------|
---------------------|--1----------------|--3------------------|--------------------|


  H        Q    Q       Q    Q    Q    Q       H        Q    Q       Q    Q    Q    Q     
--0-------------3----|--3--------------0----|--1-------------0----|--0-------------------|
---------------------|--3---------3---------|---------------------|----------------------|
--0--------0---------|-------2--------------|--2--------0---------|------------0----2----|
---------------------|--0-------------------|---------------------|-------0--------------|
--3------------------|----------------------|---------------------|----------------------|
---------------------|----------------------|---------------------|--3-------------------|


  H.           Q       Q    Q    H           Q    Q    Q.     E     Q    Q    H         
--------------------|--0------------------|------------3------5--|---------------------|
--3-----------------|------------3--------|--5----6--------------|--5------------------|
--4-----------------|-------2-------------|----------------------|------------5--------|
--------------------|--0------------------|------------3---------|-------5-------------|
--------------------|---------------------|----------------------|--3------------------|
--------------------|---------------------|--3-------------------|---------------------|


  H        H           H        Q    Q       Q    Q    Q.     E     W                   Q     
--------------------|---------------------|-------0--------------|-------------------|-------|
--3--------1--------|--3------------------|--3---------6------8--|--5----------------|-------|
--0--------2--------|---------------------|----------------------|-------------------|-------|
--------------------|-----------0----1----|--2-------------------|-------------------|-------|
--0-----------------|--2------------------|----------------------|--0----------------|-------|
--------------------|---------------------|------------4---------|-------------------|-------|


  Q    Q    H           Q    Q    Q.      E      Q    Q     H           Q    Q    H         
--0------------------|-----------------------|--10----------8--------|--7---------0--------|
--3---------1--------|--5----6----8------10--|--10---------10--------|--0------------------|
-------2-------------|--4--------------------|--------9--------------|-------0-------------|
--0------------------|-----------------------|-----------------------|---------------------|
---------------------|------------8----------|---0-------------------|---------------------|
---------------------|--3--------------------|-----------------------|--3------------------|


  Q    Q    Q    Q       H        Q.     E     Q    Q    Q     Q       H.           Q     
-----------------0----|-----------8---------|--0--------------------|--------------------|
--6-------------------|--6---------------6--|-----------------------|--3-----------------|
------------7---------|---------------------|------------0h----2----|--------------------|
-------7--------------|---------------------|-------0---------------|--------------------|
--5-------------------|---------------------|-----------------------|--------------------|
----------------------|---------------------|--3--------------------|--------------------|


  Q     Q     Q.     E      W                   Q    Q     Q.     E     W                 
--8----10----12------8--|--------------------|--7----8----10------7--|--8----------------|
------------------------|--10----------------|--8--------------------|-------------------|
------------------------|--10----------------|--0--------------------|-------------------|
------------------------|--------------------|-----------------------|--7----------------|
------------------------|---8----------------|-----------------------|--0----------------|
------------------------|--------------------|-----------------------|-------------------|


   Q     Q     Q.      E      H         H            Q     Q     Q    E   E   
--------10----12----------|--15--------13--------|--------------13-------10--|
--13------------------13--|----------------------|--------12-----------------|
---------------0----------|--10------------------|--12-----------------------|
--10----------------------|----------------------|---------------------------|
--------------------------|----------------------|---------------------------|
--------------------------|----------------------|---------------------------|


                                                                           |--3-|             
   H         H            H        Q    Q       W                   Q.     S S  S  Q.     E   
--13--------12--------|-----------------3----|--5----------------|--7--------8p-7p-5------7--|
------------13--------|------------6---------|-------------------|-----------------0---------|
--12------------------|------------0---------|-------------------|--0------------------------|
--10------------------|----------------------|--3----------------|---------------------------|
----------------------|----------------------|-------------------|---------------------------|
----------------------|----------------------|-------------------|---------------------------|


  H         H            H         Q     Q        Q     Q     Q     Q     
--8--------10--------|--12--------------15----|--15----------------12----|
------------8--------|------------------------|--15----------15----------|
---------------------|------------12----------|--------14----------------|
--7---------9--------|--10--------------------|--12----------------------|
---------------------|------------------------|--------------------------|
---------------------|------------------------|--------------------------|


               NH               NH      NH      NH      NH         NH                
   H           Q     Q          Q       Q       Q       Q          W                 
--13----------------12----|--<12>----------------------------|----10----------------|
--------------------------|--------------------------<12>----|----------------------|
--14--------<12>----------|------------------<12>------------|----------------------|
--------------------------|----------<12>--------------------|----------------------|
--------------------------|----10----------------------------|----------------------|
--------------------------|----------------------------------|----------------------|


     NH                                                                                      
     H.           Q       H        H           Q    Q    H           Q    Q    Q       Q     
-----------------------|--8--------7--------|--8------------------|-----------------|--5----|
---<>------------------|--------------------|------------8--------|------------8----|--5----|
-----------------------|--------------------|-------5-------------|-------5---------|--0----|
-----------------------|--------------------|--7------------------|--5--------------|--3----|
-----------------------|--------------------|---------------------|-----------------|-------|
-----------------------|--------------------|---------------------|-----------------|-------|


  H        H           Q    Q    H           Q    Q    H           Q    Q    Q    Q     
--------------------|---------------------|---------------------|--0-------------------|
--1--------0--------|--1------------------|------------3--------|----------------------|
--------------------|------------0--------|------------0--------|-----------------0----|
--------------------|---------------------|---------------------|------------3---------|
--------------------|-------3-------------|-------3-------------|-------3--------------|
--------------------|--5------------------|--3------------------|--1-------------------|


  H        H           W                   E  E    
-----------1--------|--3----------------|--------||
-----------0--------|-------------------|--1-----||
--2-----------------|--0----------------|--0-----||
--------------------|--3----------------|--2-----||
--------------------|-------------------|--3-----||
--------------------|-------------------|--------|| fine...

Login or Register to remove this ad.