Ads

Styx Helix (Slow Version) (Re:ZERO -Starting Life in Another World-) Guitar Tab

Submitted: Jul 05, 2016 by quinndangle2

5
Average: 5 (2 votes)
Download | Listen
Game: Re:ZERO -Starting Life in Another World-
Composer(s): Kenichiro Suehiro
Style: Arrangement, Fingerstyle

AutoScroll: Slow | Medium | Fast
Styx Helix Slow Version
From Re:Zero kara Hajimeru Isekai Seikatsu 
Arranged by Brent Quinn

credit to JBAnimePiano on Youtube - this arrangement is heavily based off their transcription

Tempo ~ 65
Tuning EADF#BE (drop 3rd string 1/2 step)
4/4 time

 
    H     Q    Q      H     H       Q    Q    Q    Q      W        H     E   E   E   E
 E|-0-----2---------|-4-----------|-0-------------------|-2------|-L-------------7---4---|
 B|-2-----4---------|-5-----4-----|-2-------------------|-4------|-L---------------------|
F#|------------5----|-------0-----|----------------3----|-0------|-L---------7-----------|
 D|-----------------|-------------|-2---------2---------|--------|-----------------------|
 A|-----------------|-------------|-0----4--------------|-2------|-L-----L---------------|
 E|-----------------|-------------|---------------------|--------|-----------------------|

    E   E   Q    Q    E   E     E   E   E    Q.    E     E   Q    E   E   Q    E
 E|-2---0---4---------7---4---|-2---0---4--------------|-----4------------4----2---|
 B|-4------------2------------|-4------------2-----0---|-2--------0---2------------|
F#|-5-------2----2------------|-2-------2----2---------|--------------2------------|
 D|--------------4------------|------------------------|-----2--------1------------|
 A|-0------------2------------|-4------------2---------|-0------------2------------|
 E|---------------------------|------------------------|---------------------------|
			
								    |----3----|
    E   E   E   S  S  Q    Q      E   E   E   E   Q    Q      H     Q    Q    Q
 E|-----2---7---5--4-------4----|-----------------0----2----|-----------------4----|
 B|-4-------0---------7---------|-------------2-------------|-4----------4---------|
F#|-2-----------------0---------|---------3-----------------|-5-----5--------------|
 D|-4-------6---------6---------|-----2---------------------|----------------------|
 A|-2-----------------4---------|-0-------------------------|-2--------------------|
 E|-----------------------------|---------------------------|----------------------|

    E   E   E   S  S  H       H     Q.    S  S    H     H       H     Q    Q      E   E   Q    E   E   Q
 E|-2-----------4--2--0-----|-7-----5-----4--2--|-0-----------|-----------------|-4-------0----11--7---5----|
 B|-4-----------------------|-9-----7-----------|-2-----------|-----------------|-2------------0-------0----|
F#|-5-----------------------|-9-----------------|-3-----0-----|-2-----0----3----|-5-------2--------0--------|
 D|-------------1--L--2-----|-------------------|-2-----1-----|-2-----1---------|-----2---------------------|
 A|-4-------4---------------|-------------------|-0-----2-----|-4-----2---------|-0-------------------------|
 E|-----4-------------------|-9-----------------|-------2-----|-4-----2---------|--------------7------------|

    Q    Q    E   E   E   E     E   E   E   E   H       E   E   E   E   Q    Q
 E|-7----0------------0---9---|-----------------0-----|-----------------2---------|
 B|-7-------------4-----------|-------------0---------|-------------2--------4----|
F#|-5-------------------------|---------3-------------|---------5-----------------|
 D|-6----L----2---------------|-----2-----------------|-----4---------------------|
 A|-----------4---------------|-0---------------------|-2-------------------------|
 E|---------------------------|-----------------------|---------------------------|

    Q    Q    E   E   Q      Q    Q.    E   E   E     E   E   E   E   H       Q    Q    Q    Q
 E|-0---------4---0--------|-0------------------0---|-0---------------------|---------------------|
 B|-2-----------------4----|------------------------|-------------0---2-----|-4----4----2----0----|
F#|------2-----------------|-2----2-----2---3-------|-3-------3-------------|-2-------------------|
 D|------------------------|-2----------------------|-2---2-----------------|-4-------------------|
 A|-4----------------------|-4----------------------|-0---------------------|-2-------------------|
 E|------------------------|------------------------|-----------------------|---------------------|

    W
 E|--------|
 B|-2------|
F#|-2------|
 D|-4------|
 A|-4------|
 E|--------|



Login or Register to remove this ad.

1 comment on Styx Helix (Slow Version)

I really liked this one =)

5

I really liked this one =)