Login or Register to remove this ad.

Stay Alive (Re:ZERO -Starting Life in Another World-) Guitar Tab

Submitted: Oct 08, 2017 by MechaKrauser

5
Average: 5 (2 votes)
Download | Listen
Game: Re:ZERO -Starting Life in Another World-
Composer(s): Kenichiro Suehiro
Style: Arrangement, Fingerstyle, Natural harmonics

This song is also called Ending Theme 2

AutoScroll: Slow | Medium | Fast
Stay Alive
from Re:Zero kara Hajimeru Isekai Seikatsu
performed by Emilia (CV: Rie Takahashi)
words and music by Heart's Cry
tab by MechaKrauser

Drop D tuning, Down 1/2 Step
4/4 time, 138bpm

*Some fingerings are marked above the durations
 M=Middle, R=Ring


  [Intro]

      Q    Q    E   E  Q       W                   Q    Q    E   E  Q       H        E  E   E  E   
D#||--9----0----5s--7--0----|--L----------------|--4---------4h--5--0----|--L------------------0--|
A#||------------------------|-------------------|-------5----------------|------------------------|
F#||--6---------6s--9-------|-------------------|--6---------6-----------|------------------------|
C#||-------7-----------7----|--L----------------|-------7-----------7----|--L-----------4h--7-----|
G#||------------------------|-------------------|------------------------|-----------4------------|
C#||--0---------------------|-------------------|--4---------4-----------|------------------------|


  Q    Q    E   E  Q       W                   Q    Q    E   E  Q       H        E  E  E  E   
--9----0----5s--7--0----|--L----------------|--4---------4h--5--0----|--L-----------0--------|
------------------------|-------------------|-------5----------------|-----------7-----------|
--6---------6s--9-------|-------------------|--6---------6-----------|-----------------6-----|
-------7-----------7----|--L----------------|-------7-----------7----|--L-----------------7--|
------------------------|-------------------|------------------------|-----------------------|
--0---------------------|-------------------|--4---------4-----------|-----------------------|


 [Verse 1]

  Q    E  E  Q.     E     Q    E  E  Q    E  E     Q    Q    Q.     E     Q    E  E  Q    E   E   
-------------5------4--|--L----0----------------|----------------------|-------------------------|
-----------------------|---------------------5--|--L-------------------|-------------------------|
----------6------------|----------6-------7-----|-------------------4--|--6----7--6-------4h--6--|
-------------0---------|-------0----------------|------------4---------|-------4-----------------|
-------0---------------|-------------0----------|-------4--------------|-------------4-----------|
--0--------------------|--0---------------------|--4-------------------|--4----------------------|


  Q    Q    Q.     E     Q    E  E  Q    E  E     Q    E  E  H           Q    Q    Q    Q     
----------------------|------------------------|----------------------|----------------------|
-------------------0--|------------------0-----|-------5--------------|----------------------|
--L-------------------|--6----7--6----------6--|--L-------6-----------|----------------------|
------------0---------|-------0----------------|-------------4--------|-------4--------------|
-------0--------------|-------------0----------|-------4--------------|------------4---------|
--0-------------------|--0---------------------|--4-------------------|--4--------------4----|


  Q    E  E  Q    E   E     Q    E  E  Q    E   E     Q    Q    Q.     E     Q    E  E  Q    E   E   
-------------5----5s--4--|--L----0-----------------|----------------------|-------------------------|
-------------------------|------------------7p--5--|--L-------------------|-------------------------|
----------6--------------|----------6--------------|-------------------4--|--6----7--6-------4h--6--|
-------------0-----------|-------0-----------------|------------4---------|-------4-----------------|
-------0-----------------|-------------0-----------|-------4--------------|-------------4-----------|
--0----------------------|--0----------------------|--4-------------------|--4----------------------|


  Q    Q    Q    E  E     Q    Q    E  E  E  E     Q    Q    Q    E  E     Q    Q    H         
-----------------4--4--|--L------------------4--|--L--------------5--5--|--L------------------|
-------7---------------|------------------7-----|-----------------------|---------------------|
--L--------------------|---------------7--------|-----------------------|---------------------|
------------0----------|-------0----------------|------------4----------|-------4-------------|
-------0---------------|------------0-----------|-------4---------------|------------4--------|
--0--------------------|--0---------------------|--4--------------------|--4------------------|


 [Pre-Chorus]
                         M                                                       ^         
  Q    Q    Q    Q       Q    E  E  Q    Q       Q    Q    H           H         H         
------------2----4----|--L-------4--5----0----|--L------------------|---------------------|
----------------------|-----------------------|---------------------|-----------10--------|
----------------------|-----------------------|---------------------|------------9--------|
-------4--------------|-------2---------------|------------0--------|--L------------------|
--2---------2---------|--4----------4---------|-------0-------------|---------------------|
----------------------|-----------------------|--0------------------|---------------------|


 [Chorus]

   Q     E   E  Q    E   E     Q    E   E  Q    E   E     Q    E  E  Q     E  E   
---9----10---9-------7------|-------7---9--------------|-------------7p----5--5--|
--10--------10----------10--|--L-------10-------7S--5--|--L-------5-----------2--|
-------------------------9--|--L----------------9S--6--|--L----------------------|
----------------0-----------|-------9------------------|-------------4-----------|
---------0------------------|--7-----------7-----------|-------4-----------------|
---0------------------------|--------------------------|--4----------------------|


                                                                           M                       
  Q    Q    E   E  Q       Q    Q    Q     Q       Q    Q     Q.     E     Q    E   E  Q    E  E   
--L---------------------|------------7----------|-------7----10------9--|--L----7--------------0--|
--L---------5p--2--3----|--L---------7----10----|--L----------9------7--|--L-------10-------9-----|
------------------------|-------6----------9----|--L----9---------------|----------11----------9--|
-------2----------------|------------0----------|-------9---------------|-------------------------|
--4---------4-----------|-------0---------------|--7----------7---------|--9-----------9----------|
------------------------|--0--------------------|-----------------------|-------------------------|


  E   E   Q    Q     Q        Q     E   E  Q    E   E     Q    E   E  Q    E   E   
--L---0---0---------------|---9----10---9-------7------|-------7---9--------------|
--------------------10----|--10--------10----------10--|--L-------10-------7------|
--L------------------9----|-------------------------9--|--L-------------------10--|
-----11--11---------------|----------------0-----------|-------9------------------|
--9------------7----------|---------0------------------|--7-----------7-----------|
--------------------------|---0------------------------|--------------------------|

                                    M+R                                      M+R
  Q    E   E   Q    Q       Q    E  E  Q    E   E     Q    Q    Q    Q       Q    Q    E  E   E  E   
--------------10----9----|--L----7--5-------7S--5--|--L--------------5----|--4------------4h--5--5--|
---------------9----7----|--L----7--5-------5S--2--|--L-------------------|-------------------------|
--L-------10-------------|-------------------------|------------4---------|-------------------------|
-------9-----------------|-------------4-----------|-------4--------------|-------2-----------------|
--8------------8---------|--9----------------------|--2-------------------|--4---------4------------|
-------------------------|-------------------------|----------------------|-------------------------|


  Q    Q    Q    E  E     Q    E   E  Q    E  E     Q    E  E  E   E  Q       Q    E  E  Q    Q     
--L--------------0-----|-------------------7--5--|--L----------9s--7--7----|--L--------------------|
--------------------3--|--L----2h--3----------2--|--L----------------------|-----------------------|
-----------------------|-------------------------|-------------6s--4-------|-----------------------|
------------0----------|--------------2----------|----------0---------7----|--L----0-----4----6----|
-------0---------------|-------2-----------------|-------0-----------------|----------0------------|
--0--------------------|--2----------------------|--0----------------------|--0--------------------|


  Q    E  E  E   E  Q       Q    E  E  Q    E  E     Q    E  E  E   E  Q       Q    E  E  Q    Q     
--7----5-----7p--5--5----|--L------------------0--|--9----0-----9s--7--7----|--L--------------------|
-------------------------|------------------------|-------------------------|-----------------------|
--6----------6-----------|------------------------|--6----------6s--4-------|-----------------------|
----------4---------7----|--L----4-----6----7-----|-------7--0---------7----|--L----0-----4----6----|
-------4-----------------|----------4-------------|-------0-----------------|----------0------------|
--4----------4-----------|--4---------------------|--0----------------------|--0--------------------|


                                                  [Verse 2]

  Q    E  E  E   E  Q       Q    E  E  Q    Q       Q    E  E  Q.     E     Q    E  E  Q    E  E   
--4----------4h--5--5----|--L--------------------|-------------5------4--|--L----0----------------|
-------5-----------------|-----------------------|-----------------------|---------------------5--|
--6----------6-----------|--6--------------------|----------6------------|----------6-------7-----|
----------4---------7----|--L----4-----6----7----|-------------0---------|-------0----------------|
-------4-----------------|----------4------------|-------0---------------|-------------0----------|
--4----------4-----------|--4--------------------|--0--------------------|--0---------------------|


  Q    Q    Q.     E     Q    E  E  Q    E   E     Q    Q    Q.     E     Q    E  E  Q    E  E   
----------------------|-------------------------|----------------------|------------------------|
--L-------------------|-------------------------|-------------------0--|------------------0-----|
-------------------4--|--6----7--6-------4h--6--|--L-------------------|--6----7--6----------6--|
------------4---------|-------4-----------------|------------0---------|-------0----------------|
-------4--------------|-------------4-----------|-------0--------------|-------------0----------|
--4-------------------|--4----------------------|--0-------------------|--0---------------------|


  Q    E  E  H           Q    Q    Q    Q       Q    E  E  Q    E   E     Q    E  E  Q    Q     
----------------------|----------------------|-------------5----5s--4--|--L----0----------7----|
-------5--------------|----------------------|-------------------------|-----------------------|
--L-------6-----------|------------4---------|----------6--------------|----------6------------|
-------------4--------|-------4---------7----|-------------0-----------|-------0---------------|
-------4--------------|------------4---------|-------0-----------------|-------------0---------|
--4-------------------|--4-------------------|--0----------------------|--0--------------------|


  Q    Q    E   E  E  E     Q    Q    Q    E  E     Q    E  E  Q    Q       Q    Q    Q    Q     
--L---------7p--5--4--5--|--L--------------4-----|--4-------5------------|-----------------4----|
-------------------------|--------------------7--|-------7---------------|----------------------|
-------------------------|-----------------------|-----------------------|----------------------|
------------4------------|-------4---------------|-------------0----4----|-------0--------------|
-------4-----------------|------------4----------|-------0---------------|------------0---------|
--4----------------------|--4--------------------|--0--------------------|--0-------------------|


                                              [Pre-Chorus 2]
                                                                        M                     
  Q    Q    Q    E  E     Q    Q    Q    Q       Q    Q    Q    Q       Q    E  E  Q.     E   
--4--------------------|----------------------|------------2----4----|--L-------2--4------5--|
-----------------7--7--|--L-------------------|----------------------|-----------------------|
-----------------------|----------------------|----------------------|-----------------------|
------------4----------|-------4--------------|-------4--------------|-------2---------------|
-------4---------------|------------4---------|--2---------2---------|--4----------4---------|
--4--------------------|--4--------------4----|----------------------|-----------------------|


                                            [Chorus 2]
                                   ^                                                                 
  Q    Q    Q    Q       H         H            Q     E   E  Q    E   E     Q    E   E  Q    E   E   
--L-------------------|---------------------|---9----10---9-------7------|-------7---9--------------|
----------------------|-----------10--------|--10--------10----------10--|--L-------10-------7S--5--|
----------------------|------------9--------|-------------------------9--|--L----------------9S--6--|
------------0----4----|--7------------------|----------------0-----------|-------9------------------|
-------0--------------|---------------------|---------0------------------|--7-----------7-----------|
--0-------------------|---------------------|---0------------------------|--------------------------|


  Q    E  E  Q     E  E     Q    Q    E   E  Q       Q    Q    Q     Q       Q    Q     Q.     E   
-------------7p----5--5--|--L---------------------|------------7----------|-------7----10------9--|
--L-------5-----------2--|--L---------5p--2--3----|--L---------7----10----|--L----------9------7--|
--L----------------------|------------------------|-------6----------9----|--L----9---------------|
-------------4-----------|-------2----------------|------------0----------|-------9---------------|
-------4-----------------|--4---------4-----------|-------0---------------|--7----------7---------|
--4----------------------|------------------------|--0--------------------|-----------------------|


  Q    E   E  Q    E  E     Q     Q    Q     Q        Q     E   E  Q    E   E   
--L----7--------------0--|--L-----0---------------|---9----10---9-------7------|
--L-------10-------9-----|------------------10----|--10--------10----------10--|
----------11----------9--|--L----------------9----|-------------------------9--|
-------------------------|-------11---------------|----------------0-----------|
--9-----------9----------|--9----------7----------|---------0------------------|
-------------------------|------------------------|---0------------------------|

                                                               M+R
  Q    E   E  Q    E   E     Q    E   E   Q    Q       Q    E  E  Q    E   E     Q    Q    E  E   Q     
-------7---9--------------|--------------10----9----|--L----7--5-------7S--5--|--L------------2h--5----|
--L-------10-------7------|---------------9----7----|--L----7--5-------5S--2--|--L---------------------|
--L-------------------10--|--L-------10-------------|-------------------------|------------4-----------|
-------9------------------|-------9-----------------|-------------4-----------|-------4----------------|
--7-----------7-----------|--8------------8---------|--9----------------------|--2---------------------|
--------------------------|-------------------------|-------------------------|------------------------|


                                                                          [Interlude]
  M                                                                                               
  Q    Q    Q    E   E     Q    Q    Q    E  E     Q    E   E  Q    E  E     Q    Q    Q    Q     
--L--------------4h--5--|--L--------------0-----|-------------------7--5--|--L-------------------|
------------------------|--------------------3--|--L----2h--3----------2--|--L-------------------|
------------------------|-----------------------|-------------------------|----------------------|
-------2----------------|------------0----------|--------------2----------|-----------------3----|
--4---------4-----------|-------0---------------|-------2-----------------|-------0----3---------|
------------------------|--0--------------------|--2----------------------|--3-------------------|

                                .                  .
  Q    Q    Q    E  E     E  E  Q    Q    E  E     Q    Q    E  E  Q       Q    Q    Q    Q     
------------3-------5--|--L---------------------|------------7-----5----|--L-------------------|
------------0-------2--|--L---------------------|------------3-----2----|--L-------------------|
-----------------0-----|------------------------|-----------------------|----------------------|
------------0----------|------------------------|-----------------------|-----------------3----|
-------2---------------|--0--0--0----0----0--0--|--0----0----0--0--0----|-------0----3---------|
--5--------------------|------------------------|-----------------------|--3-------------------|


                                                                        [Bridge]
  R                             .                  .                                             
  Q    E  E  Q    Q       E  E  Q    Q    E  E     Q    Q    E  E  Q       Q    Q    Q    E  E   
----------5--3----5----|--L---------------------|-----------------------|--7--------------5--5--|
-------------0----2----|--L---------------------|-----------------------|--0--------------0--0--|
------------------2----|--L---------------------|-----------------------|-----------------------|
-------------0---------|------------------------|-----------------------|-----------------------|
-------2---------------|--0--0--0----0----0--0--|--0----0----0--0--0----|--2----2----2----2-----|
--5--------------------|------------------------|-----------------------|-----------------------|


  Q    Q    Q    Q       Q    Q    Q    E  E     Q    Q    Q    Q        Q    Q    Q     E   E   
--L-------------------|--7--------------5--9--|--L-------------------|--12----------------------|
--L-------------------|-----------------------|----------------------|------------------10--10--|
----------------------|--6--------------6--6--|--L-------------------|---7---------------7---7--|
----------------------|-----------------------|----------------------|---0----0----0-----0------|
--2----2----2----2----|--4----4----4----4-----|--4----4----4----4----|--------------------------|
----------------------|-----------------------|----------------------|--------------------------|


                                                                            ^                      
   Q    Q    E   E  E  E     Q    Q    Q    E  E     Q    Q    Q    Q       Q    Q    E   E  Q     
--------------------9--7--|--L--------------7--9--|--L-------------------|--9----0----5s--7--0----|
---L------------10--------|-----------------------|----------------------|------------------------|
---L----------------7--6--|--L--------------6--6--|--L-------------------|--6---------6s--9-------|
---0----0----0------0-----|-----------------------|----------------------|-------7-----------7----|
--------------------------|--4----4----4----4-----|--4----4----4----4----|------------------------|
--------------------------|-----------------------|----------------------|--0---------------------|


  W                   Q    Q    E   E  Q       H        E  E   E  E     Q    Q    E   E  Q     
--L----------------|--4---------4h--5--0----|--L------------------0--|--9----0----5s--7--0----|
-------------------|-------5----------------|------------------------|------------------------|
-------------------|--6---------6-----------|------------------------|--6---------6s--9-------|
--L----------------|-------7-----------7----|--L-----------4h--7-----|-------7-----------7----|
-------------------|------------------------|-----------4------------|------------------------|
-------------------|--4---------4-----------|------------------------|--0---------------------|


                                                                    [Verse 3]

  W                   Q    Q    E   E  Q       H        E  E  E  E     Q    E  E  Q.     E   
--L----------------|--4---------4h--5--0----|--L-----------0--------|-------------5------4--|
-------------------|-------5----------------|-----------7-----------|-----------------------|
-------------------|--6---------6-----------|-----------------6-----|----------6------------|
--L----------------|-------7-----------7----|--L-----------------7--|-------------0---------|
-------------------|------------------------|-----------------------|-------0---------------|
-------------------|--4---------4-----------|-----------------------|--0--------------------|


  Q    E  E  Q    E  E     Q    Q    E  E  Q       Q    Q    E  E   E  E     Q    E  E  Q    E   E   
--L----0----------------|-----------------------|----------------------0--|-------------5----5s--4--|
---------------------5--|--L--------------------|-------------------------|-------------------------|
----------6-------7-----|------------6----------|-------------------------|----------6--------------|
-------0----------------|--4---------------4----|-------4-------4h--7-----|-------------0-----------|
-------------0----------|-------4-------4-------|------------4------------|-------0-----------------|
--0---------------------|--4--------------------|--4----------------------|--0----------------------|


  Q    E  E  Q    E   E     Q    Q    E  E  Q       Q    Q    E   E  E  E     Q    E  E  Q    E   E   
--L----0-----------------|-----------------------|-------------------------|-------------5----5s--4--|
------------------7p--5--|--L--------------------|------------7p--5--------|-------------------------|
----------6--------------|------------6----------|-------------------6-----|----------6--------------|
-------0-----------------|--4---------------4----|-------4--------------7--|-------------0-----------|
-------------0-----------|-------4-------4-------|------------4------------|-------0-----------------|
--0----------------------|--4--------------------|--4----------------------|--0----------------------|


  Q    E  E  Q    Q       Q    Q    E  E   E  E     Q    Q    E  E   E  E     Q    Q    Q    E   E   
--L----0----------7----|--L------------5p--4--5--|--L-------------------0--|-----------------5s--4--|
-----------------------|-------------------------|-------------------------|------------------------|
----------6------------|-------------------------|-------------------------|------------------------|
-------0---------------|------------4------------|-------4-------4h--7-----|------------0-----------|
-------------0---------|-------4-----------------|------------4------------|-------0----------------|
--0--------------------|--4----------------------|--4----------------------|--0---------------------|


                                                       [Final Chorus]
                                              ^                                      
  Q    E  E  Q    E  E     H.           Q     H            Q     E   E  Q    E   E   
--L-------4-------5--5--|--L---------------------------|---9----10---9-------7------|
-------7----------------|--------------------10--------|--10--------10----------10--|
------------------------|---------------------9--------|-------------------------9--|
-------0----------------|------------------------------|----------------0-----------|
-------------0----------|---------------------7--------|---------0------------------|
--0---------------------|------------------------------|---0------------------------|


  Q    E   E  Q    E   E     Q    E  E  E  E  E  E     Q    Q    E   E  Q       Q    Q    Q     Q     
-------7---9--------------|----------7--------7--5--|--L---------------------|------------7----------|
--L-------10-------7S--5--|--L-------5-----5-----2--|--L---------5p--2--3----|--L---------7----10----|
--L----------------9S--6--|--L----------------------|------------------------|-------6----------9----|
-------9------------------|-------------4-----------|-------2----------------|------------0----------|
--7-----------7-----------|-------4-----------------|--4---------4-----------|-------0---------------|
--------------------------|--4----------------------|------------------------|--0--------------------|


  Q    Q     Q.     E     Q    E   E  Q    E  E     Q     Q    Q     Q        Q     E   E  Q    E   E   
-------7----10------9--|--L----7-----------7--9--|--L---------------------|---9----10---9-------7------|
--L----------9------7--|--L-------10-------------|------------------10----|--10--------10----------10--|
--L----9---------------|----------11----------9--|--L----------------9----|-------------------------9--|
-------9---------------|-------------------------|-------11---------------|----------------0-----------|
--7----------7---------|--9-----------9----------|--9----------7----------|---------0------------------|
-----------------------|-------------------------|------------------------|---0------------------------|

                                                               M+R
  Q    E   E  Q    E   E     Q    E   E   Q    Q       Q    E  E  Q    E   E     Q    Q    Q    Q     
-------7---9--------------|--------------10----9----|--L----7--5-------7S--5--|--L--------------5----|
--L-------10-------7------|---------------9----7----|--L----7--5-------5S--2--|--L-------------------|
--L-------------------10--|--L-------10-------------|-------------------------|------------4---------|
-------9------------------|-------9-----------------|-------------4-----------|-------4--------------|
--7-----------7-----------|--8------------8---------|--9----------------------|--2-------------------|
--------------------------|-------------------------|-------------------------|----------------------|


                                                                          [Outro]
  M+R
  Q    Q    E  E   E  E     Q    Q    Q    E  E     Q    E   E  Q    Q       Q    Q    Q    E  E   
--4------------4h--5--5--|--L--------------0-----|-------------------7----|--L--------------5--5--|
-------------------------|--------------------3--|--L----2h--3-------0----|--L--------------------|
-------------------------|-----------------------|------------------------|-----------------2--2--|
-------2-----------------|------------0----------|--------------2---------|------------0----------|
--4---------4------------|-------0---------------|-------2----------------|-------0---------------|
-------------------------|--0--------------------|--2---------------------|--0--------------------|


  Q    Q    Q    Q       Q    Q    Q    Q       Q    Q    Q    Q       Q    Q    Q    E  E   
--L-------------------|----------------------|----------------------|--7--------------5--5--|
--L-------------------|----------------------|----------------------|--0--------------------|
----------------------|--6-------------------|----------------------|-----------------6--6--|
-------0--------------|------------4----7----|-------4--------------|------------0----------|
------------0---------|-------4--------------|------------4---------|-------0---------------|
--0--------------0----|--4-------------------|--4--------------4----|--0--------------------|


                                                                          ^               ^    ^  
  Q    Q    Q    Q       Q    Q    Q    Q       Q    Q    Q    Q          Q    H          E    E   
--L-------------------|----------------------|----------------------|-----------------------------|
----------------------|----------------------|----------------------|--<>12-----------------------|
--L-------------------|--6-------------------|----------------------|-----------------------------|
-------0--------------|------------4----7----|-------4--------------|-------------------<>7--<>7--|
------------0---------|-------4--------------|------------4---------|-------------------<>5--<>5--|
--0--------------0----|--4-------------------|--4--------------4----|-----0----0------------------|


  W                  
-------------------||
-------------------||
-------------------||
--L----------------||
--L----------------||
-------------------||




Duration Legend
---------------
W - whole
H - half
Q - quarter
E - 8th
S - 16th
T - 32nd
X - 64th
. - note dotted
|-n-|  - n-tuplets


Tablature Legend
----------------
L - tied note
x - dead note
g - grace note
(n) - ghost note
> - accentuded note
NH - natural harmonic
AH - artificial harmonic
TH - tapped harmonic
SH - semi harmonic
PH - pitch harmonic
h - hammer on
p - pull off
b - bend
br - bendRelease
pb - preBend
pbr - preBendRelease
brb - bendReleaseBend
\n/ - tremolo bar dip
\n - tremolo bar dive
-/n - tremolo bar Release up
/n\ - tremolo bar inverted dip
/n - tremolo bar return
-\n - tremolo bar Release down
S - shift slide
s - legato slide
/ -  slide into from below or out of upwards
\ -  slide into from above or out of downwards
~ - vibrato
W - wide vibrato
tr - trill
TP - tremolo picking
T - tapping
S - slap
P - pop
< - fade in
^ - brush up
v - brush down
Login or Register to remove this ad.

3 comments on Stay Alive

The Feels... ಥ‿ಥ

5

The Feels...

 ಥ‿ಥ 

Episode 23

The end of episode 23 is where I choke up T_T

I'm not crying....I'M NOT~!

I'm not crying....I'M NOT~! *Watches episode 18*

REM BEST GIRL *Cry*