Ads

CANOE (Rewrite) Guitar Tab

Submitted: Sep 28, 2013 by corntastic (Last updated: Nov 17, 2013)

5
Average: 5 (1 vote)
Download | Listen
Game: Rewrite
Composer(s): Jun Maeda, Maiko Iuchi, Shinji Orito, Soshi Hosoi, Ryo Mizutsuki
Style: Transcription

AutoScroll: Slow | Medium | Fast
CANOE
Rewrite
Jun Maeda
corntastic
27 9 2013



e---------7-------------------------------------------------------------
B-----10-----7--8--10------------7------------7-------------------------
G--7---------------------7-9---9------7-9---7-------7------9-7----------
D----------------------7-----9------7-----9-------9------9--------------
A----------------------------------------------10-----10----------------
E-----------------------------------------------------------------------

e---------------------------------------------------------------------------------------------------------
B--8--10-7--------------------7----10-8-7----------------7-7-7-8-10-7------------7----10-8-7--------------
G----------9---6--9-7.-7----7---9---------9-6-6------6-7--------------9-6-9-7--7---9---------9-6-6--------
D-----------------------------------------------9--9-----------------------------------------------9-7-9L-
A---------------------------------------------------------------------------------------------------------
E---------------------------------------------------------------------------------------------------------

e---------------------------------------------------------------------------
B--------------------------8---------------------------------7--------------
G-----6-------7-------9-------9--7------6-7------7-9----6-9--------6--7-----
D-------------------------------------7--------7-----------------7----------
A--10------10------10-------------------------------------------------------
E---------------------------------------------------------------------------

_____________________________________________________________________________________________________________


e-------------------------------------------------------------------------
B-------------------------8-6-----------------------------------8-6-------
G--5-9--5-9--5-5--7-7--9------7-7-9-7-7----9---9---5-5--7-7--9------7-5---
D-------------------------------------------------------------------------
A-------------------------------------------------------------------------
E-------------------------------------------------------------------------

e-------8-7------------------7-7-8------------------------7-8-------------
B--8-10-----10------8-----8--------10-8-10-----8-----8--8-----8-----------
G----------------------9--------------------------9-----------------------
D---------------10--------------------------9-----------------------------
A-------------------------------------------------------------------------
E-------------------------------------------------------------------------

e-------------------------------------------------------------------------
B---------------------------------8---------------------------------------
G--9-9----7--9-7---------7-9--9-7-----------------------------------------
D-------7---------10-10-------------10-10--9.-----------------------------
A-------------------------------------------------------------------------
E-------------------------------------------------------------------------

e-----7-10-9-7---------------9--9-10-9-7----7--------------9--9-10--------
B--10-------------10--10-10--------------10-----10--10-10----------10-----
G---------------7-----------------------------7---------------------------
D-------------------------------------------------------------------------
A-------------------------------------------------------------------------
E-------------------------------------------------------------------------

e-------------------------------------------------------------------------
B--7-7--7---7-----------7--7---10-----------------------------------------
G---------9---9--7-7--6------9----7-7L------------------------------------
D-------------------------------------------------------------------------
A-------------------------------------------------------------------------
E-------------------------------------------------------------------------

_____________________________________________________________________________________________________________


e-------------------------------------------------------------------------
B------7------10----10-8-7-----7------------------------------------------
G--7-9---9--9-----7--------9-9---9-8-8-8-8---------7-7-10-----------------
D------------------------------------------8--8-10------------------------
A-------------------------------------------------------------------------
E-------------------------------------------------------------------------

e-------------------------------------------------------------------------
B------7------10----10-8-7-----7------------------------------------------ 
G--7-9---9--9-----7--------9-9---9-8-8-8-8---------7-9-8--9-9-------------
D------------------------------------------8--8-10------------------------
A-------------------------------------------------------------------------
E-------------------------------------------------------------------------

_____________________________________________________________________________________________________________


e----9-10---------------------------------9-10-----------------------------
B--8------10--8--7---------7---8--10----8------10--8--7---------7---8--10--
G-------------------9---9--------------------------------9---9-------------
D--------------------------------------------------------------------------
A--------------------------------------------------------------------------
E--------------------------------------------------------------------------

e-------------------------------------------------------------------------
B-------------------------------------------------------------------------
G--7---7-9-7----------------7---7-9-7---10-9-7-7--------------------------
D----7-------7-10-9----7------7-------7-----------------------------------
A-------------------10----------------------------------------------------
E-------------------------------------------------------------------------

e-------------------------------------------------------------------------
B-------------------------------------------------------------------------
G--7---7-9-7--------------7-7----6------7----9----------------------------
D----7-------7-10-9----7--------------7-----------------------------------
A-------------------10----------------------------------------------------
E-------------------------------------------------------------------------


_____________________________________________________________________________________________________________


e-------------------------------------------------------------------------
B-------------------------------------------------------------------------
G-----9-10----9-10----7-9----9-10----9-10----9-10-------------------------
D--10------10------10-----10------10------10------------------------------
A-------------------------------------------------------------------------
E-------------------------------------------------------------------------

e-------------------------------------------------------------------------
B---------------------------------------------------10-12-----------------
G-----10-12----10-12----9-10----9-10----10-12----12-------12L-------------
D--10-------10-------10------10------10-------10--------------------------
A-------------------------------------------------------------------------
E-------------------------------------------------------------------------

e-------------------------------------------------------------------------
B-------------------------------------------------------------------------
G-----9-10----9-10----7-9----9-10----9-10----9-10-------------------------
D--10------10------10-----10------10------10------------------------------
A-------------------------------------------------------------------------
E-------------------------------------------------------------------------

e----------------------------------------7-9------------------------------
B----8-10---8-10---7-8---7-8---8-10---10-----10L--------------------------
G--7------7------7-----7-----7------7-------------------------------------
D-------------------------------------------------------------------------
A-------------------------------------------------------------------------
E-------------------------------------------------------------------------


_____________________________________________________________________________________________________________


e-------8-7------------------7-7-8-------------------------7-8------------
B--8-10-----10------8-----8--------10-8-10------8-----8--8-----8----------
G----------------------9---------------------------9----------------------
D---------------10--------------------------10----------------------------
A-------------------------------------------------------------------------
E-------------------------------------------------------------------------

e-------------------------------------------------------------------------
B---------------------------------8---------------------------------------
G--9-9----7--9-7---------7-9--9-7-----------------------------------------
D-------7---------10-10-------------10-10--9.-----------------------------
A-------------------------------------------------------------------------
E-------------------------------------------------------------------------

e-----7-10-9-7---------------9--9-10-9-7----7--------------9--9-10--------
B--10-------------10--10-10--------------10-----10--10-10-----------------
G---------------7-----------------------------7---------------------------
D-------------------------------------------------------------------------
A-------------------------------------------------------------------------
E-------------------------------------------------------------------------

e-------------------------------------------------------------------------
B--7-7--7----7-----------7--7---10-------------7--10---10-----------------
G---------9----9--7-7--6------9----7-7--6-7--6-------9----7-7-------------
D-------------------------------------------------------------------------
A-------------------------------------------------------------------------
E-------------------------------------------------------------------------
Login or Register to remove this ad.