A Moment of Relief (Resident Evil Code: Veronica) Guitar Tab

Submitted: Aug 01, 2015 by Starkirby (Last updated: Aug 01, 2015)

0
Download | Listen
Game: Resident Evil Code: Veronica
Composer(s): Takeshi Miura, Hijiri Anze, Sanae Kasahara
Style: Transcription
Series: Resident Evil

AutoScroll: Slow | Medium | Fast
e||--------------|
B||---1-2-4-434--|
G||--------------|
D||--3-----------|
A||-3------------|
E||--------------|

e||---------124--|
B||---1-2-4------|
G||--------------|
D||--3-----------|
A||-3------------|
E||--------------|
Login or Register to remove this ad.