Ads

Music Box (Resident Evil 3: Nemesis) Guitar Tab

Submitted: Nov 04, 2013 by suddenimpact711

5
Average: 5 (1 vote)
Download | Listen
Game: Resident Evil 3: Nemesis
Composer(s): Masami Ueda
Style: Transcription
Series: Resident Evil

AutoScroll: Slow | Medium | Fast
Music Box Puzzle
Resident Evil 3: Nemesis

Composed by: Masami Ueda 
Tabbed by: suddenimpact711

Gtr I (E A D G B E) - 'Guitar I'
Gtr II (E A D G B E) - 'Guitar II (Melody 1 octave down)'

A neat, calm, and simple melody, some of the notes can be played on the open strings
if preferred, I just diddn't tab it that way so it would be easier to stop the notes on
time without having to make specific effort to mute the strings.

  Q=70
 4/4
  Gtr I
   E  E  E  E  E..  E. S.   +Q.    E  E  E  Q
|----------12-------------|----------------12--|
|-12-10-12----12---10-----|-------12-10-12-----|
|----------------------9--|-(9)----------------|
|-------------------------|--------------------|
|-------------------------|--------------------|
|-------------------------|--------------------|
|
| Gtr II
|  E  E  E  E  E..  E. S.   +Q.    E  E  E  Q
|-------------------------|--------------------|
|-----------5-------------|-----------------5--|
|--4--2--4-----4----2-----|--------4--2--4-----|
|----------------------2--|-(2)----------------|
|-------------------------|--------------------|
|-------------------------|--------------------|


   +E   E  E  Q   Q.      E  E  Q   Q   Q     +Q
|-(12)-----------------|-----------10------|--------*|
|------12-13-15--------|-10-12-13------10--|-(10)---*|
|----------------12----|-------------------|--------*|
|----------------------|-------------------|--------*|
|----------------------|-------------------|--------*|
|----------------------|-------------------|--------*|
|
|  +E   E  E  Q   Q.      E  E  Q   Q   Q     +Q
|----------------------|-------------------|--------*|
|--(5)-----------------|------------3------|--------*|
|-------4--5--7--------|--2--4--5-------2--|--(2)---*|
|-----------------5----|-------------------|--------*|
|----------------------|-------------------|--------*|
|----------------------|-------------------|--------*|


Duration Legend
---------------
W - whole; H - half; Q - quarter; E - 8th; S - 16th; T - 32nd; X - 64th; a - acciaccatura
+ - note tied to previous; . - note dotted; .. - note double dotted
Uncapitalized letters represent notes that are staccato (1/2 duration)
Irregular groupings are notated above the duration line
Duration letters will always appear directly above the note/fret number it represents the
duration for.  Duration letters with no fret number below them represent rests.  Multi-
bar rests are notated in the form Wxn, where n is the number of bars to rest for.  Low
melody durations appear below the staff

Tablature Legend
----------------
 h   - hammer-on
 p   - pull-off
 b   - bend
 pb  - pre-bend
 r   - bend release (if no number after the r, then release immediately)
 /\  - slide into or out of (from/to "nowhere")
 s   - legato slide
 S   - shift slide
  - natural harmonic
[n]  - artificial harmonic
n(n) - tapped harmonic
 ~   - vibrato
 tr  - trill
 T   - tap
 TP  - trem. picking
 PM  - palm muting
\n/  - tremolo bar dip; n = amount to dip
 \n  - tremolo bar down
 n/  - tremolo bar up
/n\  - tremolo bar inverted dip
 =   - hold bend; also acts as connecting device for hammers/pulls
 <>  - volume swell (louder/softer)
 x   - on rhythm slash represents muted slash
 o   - on rhythm slash represents single note slash

Misc Legend
-----------
 |  - bar
||  - double bar
||o - repeat start
o|| - repeat end
*|  - double bar (ending)
 :  - bar (freetime)
 $  - Segno
 &  - Coda
Tempo markers -  = BPM(8/16=s8/s16), where s8 = swing 8ths, s16 = swing 16ths


***************************************************************************************
* Generated using Power Tab Editor by Brad Larsen - http://powertab.guitarnetwork.org *
***************************************************************************************
Login or Register to remove this ad.