Ads

Save Room (Resident Evil 2) Guitar Tab

Submitted: Mar 02, 2013 by Brody

5
Average: 5 (2 votes)
Download | Listen
Game: Resident Evil 2
Composer(s): Masami Ueda
Style: 2 or more instruments, Transcription
Series: Resident Evil

AutoScroll: Slow | Medium | Fast
- Resident Evil 2 - Save Room Music [Brodys Game Music Variation] -


 ~~~~~~ Main/Lead ~~~~~~
 (Played trought the hole song)

E|--------4-4--9-9--4-4--5-5--2-2--4-4--|
B|--2-2---------------------------------|
G|--------------------------------------|
D|--------------------------------------|
A|--------------------------------------|
E|--------------------------------------|


 ~~~~~~ Rythm Guitar ~~~~~~

E|--------------------------|
B|--------------------------|
G|--6---6--4---4--2---------|
D|--6---6--4---4--2---------|
A|--4---4--2---2--0---0--2--|
E|--------------------------| 


 ~~~~~~ Acoustic Rythm ~~~~~~

E|----------------------------------------------------------|
B|----------------------------------------------------------|
G|------6-------6--------4-------4-------2-------2----------|
D|----6---6---6---4----4---4---4---4---2---2---2---2--------|
A|--4-------4--------2-------2-------0-------0--------0--2--|
E|----------------------------------------------------------|

 ~~~~~~ Solo 1 ~~~~~~

E|-----------------------------------------------|
B|------9--7-----------9--7----------------------|
G|--6---------6--------------6--9----9--6-----6--|
D|---------------9-------------------------9-----|
A|-----------------------------------------------|
E|-----------------------------------------------| 2x


 ~~~~~~ Solo 2 ~~~~~~
 (Played after the 1st Solo is finished the 2nd time)

E|----------------------------|
B|----------------------------|
G|--6--6--9---6-9--6-9-6---6--|
D|-----------------------9----|
A|----------------------------|
E|----------------------------| 3x

 -> Then:
E|---------------------------------------|
B|-9-9-9--7-7-7--------------------------|
G|---------------6-6-6-------------------|
D|----------------------9----------------|
A|---------------------------------------|
E|---------------------------------------|
Login or Register to remove this ad.