Ads

Request: Past Story from Fairy Tail

Listen ||

Hiya guys!
Have come across this beautiful song recently and wonder if somebody is up to a challenge to tab this piece of work :)

Thanks for reading,
Wolferion

4 comments on Past Story

...

Here you go:

Capo 3


     E  E     Q    Q    Q       Q    Q     Q       Q    Q    Q       Q    Q    E  E   
E||--3--5--|--7--------------|--7---------12----|--5---------3----|--0---------0--2--|
B||--------|------------5----|-------7----10----|-------5---------|------------0-----|
G||--------|-------0---------|------------------|-----------------|-------0----------|
D||--------|-----------------|--0---------------|-----------------|--2---------------|
A||--------|-----------------|------------------|--4--------------|------------------|
E||--------|--0--------------|------------------|-----------------|------------------|


  Q    E  E  Q       E  E  E  E  Q       Q    E  E  Q       Q    Q    Q     
--3-------2--3----|--7----------------|--5----------5----|--3---------2----|
------------------|-----------0--3----|----------5-------|------------3----|
------------------|--------0-----0----|-------5----------|-------2---------|
-------2----------|-----0-------------|------------------|--0--------------|
--3---------------|-------------------|--0---------------|-----------------|
------------------|--3----------------|------------------|-----------------|


  ^                                                               ^                    
  E  E  E  E  E  E     E  E  E   E  E  E     E  E  E  E  E  E     E  E  E  E   E   E   
--0-----------------|---------------3--5--|--7-----------0-----|--7-----------12------|
--------------------|--0------------------|--------0-----0-----|--7-----7-----10------|
--0-----------0-----|---------------------|-----0-----0-----0--|-----7-----7------11--|
--------2--4-----2--|--------2s--4--------|--------------------|--0-------------------|
-----2--------------|-----2---------------|--------------------|----------------------|
--0-----------------|--0------------------|--0-----------------|----------------------|


  ^                    ^                    ^                    ^                  
  E  E  E  E  E  E     E  E  E  E  E  E     E  E  E  E  E  E     E  E  E  E  E  E   
--5-----------3-----|--0-----------0--2--|--3--------2--3-----|--7-----------------|
--2--------2--------|--0--------0--------|--1-----1-----------|--0--------0--3-----|
--------2--------2--|--0-----0-----------|-----0-----------0--|--0-----0-----0-----|
-----2--------------|-----2--------------|--------------------|-----0-----------0--|
--0-----------------|--------------------|--3-----------------|--------------------|
--------------------|--0-----------------|--------------------|--3-----------------|


  ^                                         ^                                     
  E  E  E  E  E  E     E  E  E  E  E  E     E  E  Q    Q       E  E  E  E  E  E   
--8--------7--5-----|--3-----------5-----|--2---------------|-----------0--------|
--5-----5-----------|--3-----3-----3-----|--3-----3---------|--------------0-----|
-----5-----------5--|-----2-----2-----2--|-----2------------|--------0-----------|
--------------------|--0-----------------|--0---------------|--2--------------2--|
--0-----------------|--------------------|-------------0----|-----2--------------|
--------------------|--------------------|------------------|--0-----------------|


  ^                    ^                                                            
  E  E  E  E  E  E     E  E  E  E  E  E     E  E  E  E  E  E     E  E  E  E  E  E   
--------------------|--------0-----------|--------------------|--------------------|
--0-----------0-----|--3-----3-----3-----|--0-----------------|-----------0--------|
--0-----2-----------|--2-----------2-----|-----------0--------|--2-----------2-----|
-----2-----2-----2--|--0--0-----0-----0--|--------0-----0-----|--------2-----------|
--3-----------------|--------------------|-----2-----------2--|-----3-----------0--|
--------------------|--2-----------------|--3-----------------|--5-----------------|


                       ^                                                          
  E  E  E  E  E  E     E  E  E  E  E  E     E  E  E  E  Q       E  E  E  E  Q     
--------------------|--------0-----2-----|--0----------------|--0-----------0----|
--------------------|--3-----------------|--------------1----|--------3-----1----|
--0-----------------|--2--------2--------|--------0----------|--------0----------|
--------4-----2-----|-----0-----------0--|-----2-----2-------|-----2-----2-------|
-----2-----2-----2--|--------------------|--3----------------|--3----------------|
--0-----------------|--2-----------------|-------------------|-------------------|


  T T T T T T T T T T T T T T T T T T T T T T T T  
----0-0-0---0-0-0---0-0-0---0-0-0---7-7-7---7-7-7-|
------------------0---------------0---------------|
----------0---------------0---------------0-------|
--------------------------------------------------|
--------------------------------------------------|
--0-----------------------------------------------|


  T T T T T T T T T T T T T T T T T T T T T T T T  
----7-7-7---7-7-7---5-5-5---5-5-5---7-7-7---7-7-7-|
------------------5---------------5---------------|
----------0---------------0---------------0-------|
--------------------------------------------------|
--3-----------------------------------------------|
--------------------------------------------------|


  T  T  T  T  T  T  T  T  T  T  T  T  T  T  T  T  T  T  T  T  T  T  T  T  
----10-10-10----10-10-10----12-12-12----12-12-12----10-10-10----10-10-10-|
-------------------------10----------------------10----------------------|
-------------11----------------------11----------------------11----------|
--0----------------------------------------------------------------------|
-------------------------------------------------------------------------|
-------------------------------------------------------------------------|


  T T T T T T T T T T T T T T T T T T T T T T T T  
----7-7-7---7-7-7---7-7-7---7-7-7---7-7-7---7-7-7-|
--------------------------0-----------------------|
------------------0---------------0---------------|
----------0-------------------------------0-------|
--------------------------------------------------|
--3-----------------------------------------------|


  T T T T T T T T T T T T T T T T T T T T T T T T  
----5-5-5---5-5-5---5-5-5---7-7-7---5-5-5---5-5-5-|
------------------5---------------5---------------|
----------5---------------5---------------5-------|
--------------------------------------------------|
--0-----------------------------------------------|
--------------------------------------------------|


  T T T T T T T T T T T T T T T T T T T T T T T T  
----3-3-3---3-3-3---2-2-2---2-2-2---0-0-0---0-0-0-|
------------------0---------------0---------------|
----------0---------------0---------------0-------|
--------------------------------------------------|
--------------------------------------------------|
--0-----------------------------------------------|


  T T T T T T T T T T T T T T T T T T T T T T T T  
--------------------0-0-0---0-0-0---2-2-2---2-2-2-|
----3-3-3---3-3-3---------3---------------3-------|
------------------2---------------2---------------|
----------0---------------------------------------|
--------------------------------------------------|
--2-----------------------------------------------|


  T T T T T T T T T T T T T T T T T T T T T T T T  
----0-0-0---0-0-0---0-0-0---0-0-0---0-0-0---0-0-0-|
----------------------------------1---------------|
------------------0-------------------------------|
----------2---------------2---------------2-------|
--3-----------------------------------------------|
--------------------------------------------------|


  T T T T T T T T T T T T T T T T T T T T T T T T  
----0-0-0---0-0-0---0-0-0---0-0-0---0-0-0---0-0-0-|
----------------------------------1---------------|
------------------0-------------------------------|
----------2---------------2---------------2-------|
--3-----------------------------------------------|
--------------------------------------------------|


  T T T T T T T T T T T T T T T T T T T T T T T T  
----0-0-0---0-0-0---0-0-0---0-0-0---0-0-0---0-0-0-|
--------------------------------------------------|
----------------------------------0---------------|
------------------2-------------------------------|
----------2---------------2---------------2-------|
--0-----------------------------------------------|


  T T T T T T T T T T T T T T T T E  E     Q    Q    Q       Q    Q     Q     
----0-0-0---0-0-0---0-0-0---0-0-0-3--5--|--7--------------|--7---------12----|
----------------------------------------|------------5----|-------7----10----|
----------------------------------------|-------0---------|------------------|
------------------2---------------------|-----------------|--0---------------|
----------2---------------2-------------|-----------------|------------------|
--0-------------------------------------|--0--------------|------------------|


  Q    Q    Q       Q    Q    E  E     Q    E  E  Q       E  E  E  E  Q     
--5---------3----|--0---------0--2--|--3-------2--3----|--7----------------|
-------5---------|------------0-----|------------------|-----------0--3----|
-----------------|-------0----------|------------------|--------0-----0----|
-----------------|--2---------------|-------2----------|-----0-------------|
--4--------------|------------------|--3---------------|-------------------|
-----------------|------------------|------------------|--3----------------|


  Q    E  E  Q       Q    Q    Q       E  E  H           H.             
--5----------5----|--3---------2----|--0--------------|---------------||
----------5-------|------------3----|--------0--------|---------------||
-------5----------|-------2---------|-----0-----------|---------------||
------------------|--0--------------|--2--------------|--2------------||
--0---------------|-----------------|-----------------|---------------||
------------------|-----------------|-----------------|---------------||

And midi file: Past Story
Let me know if you're able to play it (not sure with the tremolo)

Can you please make a simple

Can you please make a simple vision of the Past Story. Thank you.

hello

Great tab Wow! I can't play tremolo but it still a great pleasure how it sounds. Why not publishing ?

Been a while since you've

Been a while since you've posted diralark. How are you? I'll ask Kenor if he wants to publish this to the site. Coincidentally, he also posted for the first time in years just a couple days ago.