Ads

Request: Alice from Shadow Hearts

Listen ||

So I looked everywhere for a simple tab of this song, Alice, but I was unsuccessful.
I'm curious, is it possible to create a tab of this song for a single guitar, nice and simple just like the piano in the audio link? Thanks!

4 comments on Alice

I already made a tab for the

I already made a tab for the original version of the song

http://www.gametabs.net/playstation-2/shadow-hearts/alice

I know, but I'd like a nice

I know, but I'd like a nice simple piece, if it's not too much trouble.

Like

Like this?

e---9------7-------------------------------------------------------
B-----------------9------7-----------7--5------4-------------------
G-------------------------------6-------4------2---------------1---
D-------------------------------6---------------------1--2--4--2---
A------------------------------------------------------------------
E------------------------------------------------------------------

e---11--7----2--4----4--2------0----2--4---------------------------
B-------4-------2-------0---------------------2---------------2----
G------------------------------------------------------------------
D----------------------------------------------------1--2--4--2----
A------------------------------------------------------------------
E------------------------------------------------------------------

e---11--7----------------------------------------------------------
B--------------9--10--9--7-----------7-----------------------------
G-------------------------------6-------9------8---------------6---
D----------------------------------------------7------------4------
A-----------------------------------------------------6--7--6--7---
E------------------------------------------------------------------

e-----12-11-9--------------------------------0--2-4----------------
B---9---------12--------9--10--9----------2--------------------5---
G-------------------11------------11----------------4----1--2------
D-------------13------------------13------2---------2--------------
A------------------------------------------------------------------
E------------------------------------------------------------------

e---------2--11-12-9-11----9---------------------------------------
B---4--5--4-------------12---10-12-9-10----9-----------------------
G---------------------------------------11---9-8-------------------
D----------------------------------------------------11------------
A------------------------------------------------------------------
E------------------------------------------------------------------

Yes! Thank you very much. :)

Yes! Thank you very much. :)