Ads

Request: Ailes Grises from Haibane Renmei

Listen ||

This might have been requested before, but Ailes Grises is one of my tracks from Haibane Renmei and I'd really love someone to tab out a guitar version.

There's a video of someone playing this song on classical guitar here: http://www.youtube.com/watch?v=1g1P9OkuaHA

He also provided sheets here https://docs.google.com/viewer?a=v&pid=sites&srcid=ZGVmYXVsdGRvbWFpbnxzd...

I've been trying to learn how to read from sheets, but I'm having a bit of difficulty. I'd be extremely grateful if someone could tab this out for me.

4 comments on Ailes Grises

Here Tab file replay sample

You beat me to it. Here's a

You beat me to it. Here's a text version exported from tomorning's tab if it's easier to read.

     Q    Q    Q       Q    Q    Q       Q    Q    Q       Q    Q    Q     
E||-----------------|-----------------|-----------------|--6----5---------|
B||--1----3----5----|--6----5---------|--8----6---------|------------3----|
G||-----------------|------------5----|------------5----|-----------------|
D||-----------------|-----------------|-----------------|-----------------|
A||-----------------|-----------------|-----------------|-----------------|
E||-----------------|-----------------|-----------------|-----------------|


  Q    Q    Q       Q    Q    Q       Q    Q    Q       Q    Q    Q     
-------1----0----|--3----1----0----|--5----3----1----|--0--------------|
--1--------------|-----------------|-----------------|-------3----1----|
-------0----2----|------------0----|-----------------|-----------------|
--3--------------|--2----3---------|--0----2----3----|-------0----2----|
-----------------|-----------------|-----------------|--3--------------|
-----------------|-----------------|-----------------|-----------------|


  Q    E  E  Q       Q    Q    Q       Q    Q    Q       Q    Q    Q     
----------0--1----|-----------------|-----------------|-----------------|
--3---------------|--1---------1----|--1--------------|-----------------|
------------------|-----------------|------------3----|--2---------0----|
-------------0----|-----------------|-----------------|-------0----2----|
--1----3----------|--0----1----3----|-------0----1----|--3--------------|
------------------|-----------------|--3--------------|-----------------|


  Q    Q    Q       Q    Q    Q       Q    E  E  Q       Q    Q    Q     
-------1----0----|--3----1----0----|--5-------3--1----|--0--------------|
--1--------------|-----------------|------------------|-------3----1----|
-------0----2----|------------0----|------------------|-----------------|
--3--------------|--2----3---------|--0----2-----3----|-------0----2----|
-----------------|-----------------|------------------|--3--------------|
-----------------|-----------------|------------------|-----------------|


  Q    Q    Q       H.              Q    Q    Q       H.            
------------0----|--1------------|------------0----|--1------------|
--3--------------|--3------------|-------3---------|---------------|
-------0---------|---------------|--3--------------|---------------|
-----------------|---------------|-----------------|---------------|
--1--------------|---------------|--1--------------|--L------------|
-----------------|---------------|-----------------|---------------|


  Q    E  E  Q       Q    Q    Q       Q    Q    Q       Q    Q    Q     
--1---------------|-----------------|-----------------|-----------------|
--1-------1--1----|--1----0----1----|--3--------------|-----------------|
--2---------------|-----------------|--3---------0----|--0--------------|
-------------3----|------------3----|--5---------5----|------------5----|
-------3----------|-------3---------|-------5---------|-------5---------|
--1---------------|--1--------------|--3--------------|--3--------------|


  Q    E  E  Q       Q    Q    Q       Q    Q    Q       Q    Q    E  E   
--1---------------|-----------------|-----------------|------------------|
--1-------1--1----|--1----0----1----|--3--------------|------------------|
--2---------------|-----------------|--3---------0----|--0---------2--3--|
-------------3----|------------3----|--5---------5----|------------------|
-------3----------|-------3---------|-------5---------|-------5----------|
--1---------------|--1--------------|--3--------------|--3---------------|


  Q    Q    Q       Q    Q    Q       Q    E  E  Q       Q    Q    Q     
------------0----|-------0----1----|--0-------1--3----|--5--------------|
--1----3---------|--3--------------|------------------|-----------------|
-----------------|-----------------|-------------0----|------------2----|
------------2----|-------0----3----|-------2----------|--0----3---------|
--0----3---------|--1--------------|--3---------------|-----------------|
-----------------|-----------------|------------------|-----------------|


  E   E  E  E  E  E     E  E  E  E  E   E     E  E  E  E  E  E   
---------------0-----|-----------0--1------|--0--------1--3-----|
--1---------3--------|--3------------------|--------------------|
---------------------|---------------------|--------0--------0--|
---------2--------2--|-----0--3-----0h--3--|-----2--------2-----|
--0h--3-----0--3-----|--1--------1---------|--3--------3--------|
---------------------|---------------------|--------------------|


           >           >        >           >        >           >      >       
  E  E  E  E  E  E     E  E  E  E  E  E     E  E  E  E  E  E     Q.     Q.      
--5-----------------|--------0--------0--|--------0--------0--|--5-------------|
--5-----5--------5--|-----3--------3-----|-----2--------2-----|--2-------------|
--5--5--------5-----|--2--------0--------|--------------------|--2-------------|
-----------7--------|--------------------|--3--------2--------|----------------|
--------------------|--------------------|--------------------|--0-------------|
--------------------|--------------------|--------------------|---------3------|


  >      >                                                               
  Q.     Q.        Q    Q    Q       Q    E  E  Q        Q    Q    Q     
--0-------------|--5---------5----|--5-------5--5----|------------------|
--2-------------|--6--------------|------------------|--10---------8----|
--2-------------|--7---------7----|-------------7----|------------------|
----------------|-------7---------|-------7----------|-------------8----|
----------------|--5--------------|--5---------------|--------8---------|
--1------0------|-----------------|------------------|---6--------------|


  Q    Q    Q       Q    Q    Q       Q    E  E  Q       Q    Q    Q     
-----------------|--3---------3----|--3-------3--3----|--3----5----6----|
--6--------------|-----------------|------------------|------------5----|
-----------------|------------5----|-------------5----|-------5---------|
------------8----|-------5---------|-------5----------|-----------------|
-------8---------|--3--------------|--3---------------|--0--------------|
--6--------------|-----------------|------------------|-----------------|


  Q    Q    E  S S    Q    Q    Q       Q    Q    Q       Q    Q    Q     
--5---------L------|--1---------1----|--1---------1----|------------3----|
-------------------|------------3----|------------3----|--6---------6----|
-------5-------L-2-|-------2---------|-------2---------|-------5---------|
-------------------|--0--------------|--0--------------|--3--------------|
--0----------------|-----------------|-----------------|-----------------|
-------------------|-----------------|-----------------|-----------------|


  Q    Q    Q       Q    Q    Q       Q    Q    Q       Q    Q    Q     
--5--------------|--3--------------|-----------------|-----------------|
------------6----|------------6----|--5---------3----|-----------------|
-------5---------|------------5----|------------5----|--6--------------|
--3--------------|-------5---------|-------5---------|------------7----|
-----------------|--3--------------|--3--------------|-------7---------|
-----------------|-----------------|-----------------|--5--------------|


  Q    Q    Q       Q    Q    Q       Q    E  E  Q        Q    Q    Q     
--5--------------|--5---------5----|--5-------5--5----|------------------|
-----------------|-----------------|------------------|--10---------8----|
-----------------|------------7----|-------------7----|------------------|
------------7----|-------7---------|-------7----------|-------------8----|
-------7---------|--5--------------|--5---------------|--------8---------|
--5--------------|-----------------|------------------|---6--------------|


  Q    Q    Q       Q    Q    Q       Q    E  E  Q       Q    Q    Q     
-----------------|--3---------3----|--3-------3--3----|-------5----6----|
--6--------------|--5--------------|------------------|--6---------5----|
-----------------|------------5----|-------------5----|-----------------|
------------8----|-------5---------|-------5----------|-------7---------|
-------8---------|--3--------------|--3---------------|--0--------------|
--6--------------|-----------------|------------------|-----------------|


  Q    Q    Q       Q    Q    Q       Q    Q    Q       Q    Q    Q     
--5---------3----|--1---------1----|--1---------1----|--1---------0----|
------------5----|-----------------|-----------------|-----------------|
-----------------|------------7----|------------7----|------------3----|
-------7---------|-------7---------|-------7---------|-------3---------|
--0--------------|--5--------------|--5--------------|--1--------------|
-----------------|-----------------|-----------------|-----------------|


  Q    Q    Q       Q    Q    Q       Q    Q    Q       Q    Q    Q     
-----------------|--3--------------|--0--------------|-----------------|
--3---------1----|--6--------------|-----------------|--3--------------|
------------3----|------------5----|------------5----|------------5----|
-------3---------|-------5---------|-------5---------|-------5---------|
--1--------------|--3--------------|--3--------------|--3--------------|
-----------------|-----------------|-----------------|-----------------|


  Q    Q    Q       Q    Q    Q       Q    Q    Q       Q    Q    Q     
--0--------------|-----------------|-----------------|-----------------|
-----------------|-----------------|-----------------|--1----3----5----|
-----------------|-----------------|--0----2----3----|-----------------|
-------5---------|--0----2----3----|-----------------|-----------------|
--3---------3----|-----------------|-----------------|-----------------|
-----------------|-----------------|-----------------|-----------------|


  Q    Q    Q       Q    Q    Q       Q    Q    Q       Q    Q    Q     
-----------------|--3--------------|--6----5---------|-------0----1----|
--6----5---------|-------6---------|------------3----|--3--------------|
------------5----|------------5----|-----------------|-----------------|
-----------------|-----------------|-----------------|-----------------|
-----------------|-----------------|-----------------|-----------------|
-----------------|-----------------|-----------------|-----------------|


  Q    Q    Q       Q    Q    Q       Q    Q    Q       Q    Q    Q     
--3--------------|--5--------------|--6----5---------|-------1----0----|
-------6----5----|-------6---------|------------3----|--1--------------|
-----------------|------------7----|-----------------|-------0----2----|
-----------------|-----------------|-----------------|--3--------------|
-----------------|-----------------|-----------------|-----------------|
-----------------|-----------------|-----------------|-----------------|


  Q    Q    Q       Q    Q    Q       Q    Q    Q       Q    E  E  Q     
--3----1----0----|--5----3----1----|--0--------------|----------0--1----|
-----------------|-----------------|-------3----1----|--3---------------|
------------0----|-----------------|-----------------|------------------|
--2----3---------|--0----2----3----|-------0----2----|-------------0----|
-----------------|-----------------|--3--------------|--1----3----------|
-----------------|-----------------|-----------------|------------------|


  Q    Q    Q       Q    Q    Q       Q    Q    Q       Q    Q    Q     
-----------------|-----------------|-----------------|-----------------|
--1---------1----|--1--------------|-----------------|-----------------|
-----------------|------------3----|--2---------0----|--2--------------|
-----------------|-----------------|-------0----2----|--0----3----5----|
--0----1----3----|-------0----1----|--3--------------|-----------------|
-----------------|--3--------------|-----------------|-----------------|


  H.              Q    Q    Q       H        Q       Q    Q    Q     
---------------|-------1----3----|----------------|--5---------5----|
---------------|--3--------------|--3--------3----|------------6----|
---------------|-----------------|----------------|-------7---------|
--0------------|--0--------------|----------------|--0--------------|
---------------|-----------------|----------------|-----------------|
---------------|-----------------|----------------|-----------------|


  Q    Q    Q       Q    Q    Q       Q    Q    Q       Q    Q    Q     
--5---------5----|--5---------3----|--1--------------|--3---------3----|
------------6----|------------3----|------------3----|------------5----|
-------7---------|-----------------|-----------------|-------5---------|
--0--------------|-------0---------|-------0---------|-----------------|
-----------------|-----------------|-----------------|--3--------------|
-----------------|--6--------------|--6--------------|-----------------|


  Q    E  E  Q       Q    Q    Q       Q    Q    Q        Q    Q    Q     
--3-------3--3----|--3----5----6----|--5---------3----|--10--------------|
-------------5----|------------5----|------------5----|-------------6----|
-------5----------|-------5---------|-------5---------|--------7---------|
------------------|-----------------|-----------------|------------------|
--3---------------|--0--------------|--0--------------|---0--------------|
------------------|-----------------|-----------------|------------------|


  Q    Q    Q       Q    Q    Q       Q    Q    Q        Q    Q     Q     
-----------------|-----------------|-----------------|-------------------|
------------6----|------------6----|------------6----|--------8----10----|
-------7---------|-------7---------|-------7---------|--10---------10----|
--7--------------|--7--------------|--7--------------|--------0----------|
-----------------|-----------------|-----------------|---0---------------|
-----------------|-----------------|-----------------|-------------------|


  Q     Q     Q        Q    Q     Q       Q     Q    Q     
--8----------------|-------------------|--8---------------|
-------10-----8----|--------8----10----|-------10----8----|
-------------10----|--10----------9----|-------------9----|
--------0----------|--------0----------|--------0---------|
--0----------------|---0---------------|--0---------------|
-------------------|-------------------|------------------|


  >       >       >          >       >       >        
  S S S S S S S S S S S S    S S S S S S S S S S S S  
--------------------------|--------------------------|
----3-3-3---3-3-3---3-3-3-|----3-3-3---3-3-3---3-3-3-|
--------------------------|--------------------------|
----------0---------------|--0---------------0-------|
--0---------------0-------|----------0---------------|
--------------------------|--------------------------|


  >       >       >          >       >       >        
  S S S S S S S S S S S S    S S S S S S S S S S S S  
----5-5-5---5-5-5---5-5-5-|----5-5-5---5-5-5---5-5-5-|
--------------------------|--------------------------|
--------------------------|--------------------------|
----------0---------------|--0---------------0-------|
--0---------------0-------|----------0---------------|
--------------------------|--------------------------|


  >       >       >          >       >       >        
  S S S S S S S S S S S S    S S S S S S S S S S S S  
----4-4-4---4-4-4---4-4-4-|----4-4-4---4-4-4---4-4-4-|
--------------------------|--------------------------|
--------------------------|--------------------------|
----------0---------------|--0---------------0-------|
--0---------------0-------|----------0---------------|
--------------------------|--------------------------|


  >       >       >          >       >       >        
  S S S S S S S S S S S S    S S S S S S S S S S S S  
----3-3-3---3-3-3---3-3-3-|----3-3-3---3-3-3---3-3-3-|
--------------------------|--------------------------|
--------------------------|--------------------------|
----------0---------------|--0---------------0-------|
--0---------------0-------|----------0---------------|
--------------------------|--------------------------|


  >       >       >          >       >       >                       NH    
  S S S S S S S S S S S S    S S S S S S S S S S S S    Q    Q       Q     
----1-1-1---1-1-1---1-1-1-|----1-1-1---1-1-1---1-1-1-|--------------------|
--------------------------|--------------------------|--------------------|
--------------------------|--------------------------|--------------------|
----------0---------------|--0---------------0-------|-------0------------|
--0---------------0-------|----------0---------------|--0---------<>12----|
--------------------------|--------------------------|--------------------|


     NH     NH     NH       <                <              
     Q      Q      Q        H.               H.             
------------------------|--13------------|----------------||
------------------------|--10------------|----------------||
------------------------|--10------------|----------------||
--<>12----<>7----<>5----|---0------------|---0------------||
------------------------|----------------|----------------||
------------------------|----------------|--10------------||

And Shin, did you get that PM

And Shin, did you get that PM I sent you?

Thanks guys I appreciate

Thanks guys I appreciate it.

Also Hslesperance I got your pm I just haven't been on much lately. I'll sort it out as soon as I can