Ads

Request: Turnabout Sisters from Phoenix Wright: Ace Attorney

Listen ||

I don't really know what style it is. I guess acoustic? I'm surprised this song isn't up yet, its one of the best PW songs.

6 comments on Turnabout Sisters

nice song.

nice song.

I love this song a lot. Are

I love this song a lot. Are you looking for something like this?

http://www.youtube.com/watch?v=1oxkOni7giY

I can't remember if this guy links to a tab or not. Either way it's probably the sort of arrangement you're thinking of.

GidgetN said I love this song

GidgetN said

I love this song a lot. Are you looking for something like this?

http://www.youtube.com/watch?v=1oxkOni7giY

I can't remember if this guy links to a tab or not. Either way it's probably the sort of arrangement you're thinking of.

yea, but i cant open those kinds of tabs.

GuitarHacker said yea, but i

GuitarHacker said

yea, but i cant open those kinds of tabs.

Powertab is free and only takes a minute to download. But here's is a text version of that tab

                            TURNABOUT SISTER'S THEME
                          As recorded by Phoenix Wright


Gtr I (E A D G B E) - 'Untitled'

  Q=110
                    $
 4/4
  Gtr I
  H    Q.   S S     E. S E E +E  E E E   E E E E +Q    +E  S S
|-----------0h1-||--3--3---------0-----|-------------------0h1-|
|---------------||o--------1-(1)---3-1-|-0-1-3-1-(1)---(1)-----|
|---------------||---------------------|-----------------------|
|---------------||---------0-(0)-------|-----------------------|
|---------------||o-0--------------0---|-------3-(3)-3--2------|
|---------------||---------------------|-3---------------------|
                    Q    E E +Q    Q     Q   E E +E  E  Q


  E. S E E +E  E E E   E. S E E +Q    +E  S S
|-3--3---------0-----|----3---0-(0)---(0)-0h1-|
|--------1-(1)---3p1-|-3------1-(1)---(1)-----|
|--------------------|------------------------|
|--------0-(0)-------|------------------------|
|-0--------------0---|--------3-(3)-3--2------|
|--------------------|-3----------------------|
  Q    E E +Q    Q     Q    E E +E  E  Q


                                    To Coda
  E. S E E +E  E E E   E E E E +Q    +E  S S
|-3--3---------0-----|-------------------0h1-|
|--------1-(1)---3p1-|-0-1-3-1-(1)---(1)-----|
|--------------------|-----------------------|
|--------0-(0)-------|-----------------------|
|-0--------------0---|-------3-(3)-3--2------|
|--------------------|-3---------------------|
  Q    E E +Q    Q     Q   E E +E  E  Q


  1.
  E. S E E +S  a S +E  E E   E E E E +Q     E S S
|-3--3---8-(8)-------------|------------------0h1--||
|--------6-(6)-5h6-(6)-5---|---1-0-1-(1)----------o||
|------------------------5-|-0------------0--------||
|--------------------------|-----0-----------------||
|-0------5-(5)---0---------|-------3-(3)--2-------o||
|--------------------------|-3---------------------||
  Q    E E +Q    Q           Q   E E +Q   Q


  2.
  E. S E E +S  a S +E  E E   E E E E +Q   Q
|-3--3---8-(8)-------------|-----------------|
|--------6-(6)-5h6-(6)-5---|---1-0-1-(1)--3--|
|------------------------5-|-0---------------|
|--------------------------|-----0-----------|
|-0------5-(5)---------0---|-------3-(3)--2--|
|--------------------------|-3---------------|
  Q    E E +Q          Q     Q   E E +Q   Q


  E. S E E +E  E E S S   E.  S +E  E Q Q
|-3--3---3-(3)-1-0-----|-----0-(0)-----3-|
|------------------3p1-|-3---------1-3---|
|----------------------|-----------------|
|--------0-(0)---------|-----0-----------|
|-0--------------0-----|-----------3-2---|
|----------------------|-3---------------|
  Q    E E +Q    Q       Q   Q     Q Q


  E. S E E +E  E E E   E E E E E E E S S
|-3--3---8-(8)-----1-|---0-----------0h1--|
|--------6-(6)-----1-|---1---1---3--------|
|--------------5-5---|-------2---0--------|
|------------------3-|---2---0------------|
|-0------5-(5)-------|--------------------|
|--------------------|-----------3--------|
  Q    E E +Q.     E   E E E E E E Q


  E. S E E +E  E E S S   E. S +E  E Q  Q
|-3--3---3-(3)-1-0-----|----0-(0)------3--|
|------------------3p1-|-3--------1h3-----|
|----------------------|------------------|
|--------0-(0)---------|-------0----------|
|-0--------------0-----|------------3--2--|
|----------------------|-3----------------|
  Q    E E +Q    Q       Q     Q    Q  Q


  E. S E E +E  E E E   E E E E E E E S S
|-3--3---8-(8)-----1-|---0---------------|
|--------6-(6)-----1-|---1---1---3---1h3-|
|--------------5-5---|-------2---0-------|
|------------------3-|---2---0-----------|
|-0------5-(5)-------|-------------------|
|--------------------|-----------3-------|
  Q    E E +Q.     E   E E E E E E Q


  E E E S S +S  E S E E   E E E S S +S  E S E E
|-----3---------3-----3-|-----3-----------1-0---|
|-1-------1-(1)-----1---|---1-----1-(1)-1-----1-|
|---0---0---------0-----|-0-----0---------------|
|-3---------------------|-2---------------------|
|-----------------------|-----------------------|
|-----------------------|-----------------------|
  W                       W


  E E E S S +S  E S E E   E E E S S +S  E S E E
|-----3---------3-----3-|-----3---------3-1-0---|
|---1-----1-(1)-----1---|---1-----1-(1)-------1-|
|-0-----0---------0-----|-0-----0---------------|
|-1---------------------|-0---------------------|
|-----------------------|-----------------------|
|-----------------------|-----------------------|
  W                       W


  E E E S S +S  E S E E   E E Q  E E E E
|-----------------------|-----3----3-3---|
|---1-3---1-(1)-3---1-3-|---1------1-1---|
|-0-----0---------0-----|-0--------0-0---|
|-----------------------|----------------|
|-2---------------------|-1--------1-1---|
|-----------------------|----------------|
  W                       H      E E E E


                                                    D.S. al Coda
  E S S S  S  S S S S S S  E  E   E S S S  S  S S S S S S  E  S S
|-------------------------------|-----------------------------0-1-|
|---1---3p=1----3---3---1--3p=1-|---1---3p=1----3---3---1h=3------|
|---0---0-(0)---0---0---0-(0)-0-|---0---0-(0)---0---0---0-(0)-----|
|-3-----------------------------|-1-------------------------------|
|-------------------------------|---------------------------------|
|-------------------------------|---------------------------------|
  W                               W


  &
  E. S E E +E  E E E    Q  Q  Q  Q    E E  E  E  E  E  Q
|-3--3---8-(8)-------|--------------|----------------------|
|--------6-(6)-------|-----6--5-----|------------1-----0---|
|----------------5---|-^5--------5--|------0---------------|
|--------------7---7-|-^7-----------|---0-(0)-0-(0)-0-(0)--|
|-0------5-(5)-------|-^5-----------|----------------------|
|--------------------|--------------|-3--------------------|
  Q    E E +H           W             W


  E E E S S +S  E S E E   E E E S S +S  E S E E
|-----3---------3-----3-|-----3---------3-----3-|
|-1-------1-(1)-----1---|---1-----1-(1)-----1---|
|---0---0---------0-----|-0-----0---------0-----|
|-3---------------------|-2---------------------|
|-----------------------|-----------------------|
|-----------------------|-----------------------|
  W                       W


                          H.=H
  E E E S S +S  E S E E   E E E E E E E E
|-----3---------3-----3-|-----3-----3-----|
|---1-----1-(1)-----1---|---1-----1-----1-|
|-0-----0---------0-----|-0-----0-----0---|
|-1---------------------|-0---------------|
|-----------------------|-----------------|
|-----------------------|-----------------|
  W                       W


  Q   H    Q
|----^0---------*|
|----^0---------*|
|----^0---------*|
|----^0---------*|
|----^3---------*|
|---------------*|


Duration Legend
---------------
W - whole; H - half; Q - quarter; E - 8th; S - 16th; T - 32nd; X - 64th; a - acciaccatura
+ - note tied to previous; . - note dotted; .. - note double dotted
Uncapitalized letters represent notes that are staccato (1/2 duration)
Irregular groupings are notated above the duration line
Duration letters will always appear directly above the note/fret number it represents the
duration for.  Duration letters with no fret number below them represent rests.  Multi-
bar rests are notated in the form Wxn, where n is the number of bars to rest for.  Low
melody durations appear below the staff

Tablature Legend
----------------
 h   - hammer-on
 p   - pull-off
 b   - bend
 pb  - pre-bend
 r   - bend release (if no number after the r, then release immediately)
 /\  - slide into or out of (from/to "nowhere")
 s   - legato slide
 S   - shift slide
  - natural harmonic
[n]  - artificial harmonic
n(n) - tapped harmonic
 ~   - vibrato
 tr  - trill
 T   - tap
 TP  - trem. picking
 PM  - palm muting
\n/  - tremolo bar dip; n = amount to dip
 \n  - tremolo bar down
 n/  - tremolo bar up
/n\  - tremolo bar inverted dip
 =   - hold bend; also acts as connecting device for hammers/pulls
 <>  - volume swell (louder/softer)
 x   - on rhythm slash represents muted slash
 o   - on rhythm slash represents single note slash

Misc Legend
-----------
 |  - bar
||  - double bar
||o - repeat start
o|| - repeat end
*|  - double bar (ending)
 :  - bar (freetime)
 $  - Segno
 &  - Coda
Tempo markers -  = BPM(8/16=s8/s16), where s8 = swing 8ths, s16 = swing 16ths

I'm still waiting for a

I'm still waiting for a decent Trial tab.

This song is also cool though.

Went ahead and did a quick

Went ahead and did a quick one for you. Enjoy.