Ads

Recording: Death note - L theme

Submitted Wed, 06/10/2009 - 03:16
by Demcom | View the tab

5
Your rating: None Average: 5 (1 vote)

First part:

e: |---3--0--5--0--2--3--0--7--|--5--3--2---0------|
B: |---------------------------|---------------3---|
G: |---------------------------|-------------------|
D: |---------------------------|-------------------| about 19 times
A: |---------------------------|-------------------|
E: |---------------------------|-------------------|
PM:|...........................|...................|

Then:

e: |---3--0--5--0--2--3--0--7--|--5--3--2--0-----0-|
B: |---------------------------|--------------3----|
G: |---------------------------|-------------------|
D: |---------------------------|-------------------|
A: |---------------------------|-------------------|
E: |---------------------------|-------------------|
PM:|...........................|...................|

Then switch to the first chorus or what ever =):

e: |------------------------|----------------------|
B: |--8--8----8--8-----7----|--8--8--8--8---8----7-|
G: |--9--9----9--9-----9----|--9--9--9--9---9----9-|
D: |--9--9----9--9-----9----|--9--9--9--9—--9----9-|
A: |------------------------|----------------------|
E: |------------------------|----------------------|

e: |------------------------|----------------------|
B: |--8--8----8--8----7-----|--8--8--8--8--10------|
G: |--9--9----9--9----9-----|--9--9--9--9--9-------|
D: |--9--9----9--9----9-----|--9--9--9--9--9-------|
A: |------------------------|----------------------|
E: |------------------------|----------------------|

Second part:

e: |----------------------5-|--3-------------------|
B: |--6-----8-----5--6------|-----6--5--3----------|
G: |-----7-----7--------7---|--------------5--7----|
D: |------------------------|----------------------| 2x
A: |------------------------|----------------------|
E: |------------------------|----------------------|
PM:|........................|......................|

First chorus again but a little bit different:

e: |------------------------|----------------------|
B: |--8--8----8--8----7-----|--8--8--8--8---10--10-|
G: |--9--9----9--9----9-----|--9--9--9--9---9---9--|
D: |--9--9----9--9----9-----|--9--9--9--9---9---9--|
A: |------------------------|----------------------|
E: |------------------------|----------------------|

e: |-----------------------|-----------------------|
B: |--8--8----8--8----7----|--8--8--8--8----7------|
G: |--9--9----9--9----9----|--9--9--9--9----9------|
D: |--9--9----9--9----9----|--9--9--9--9----9------|
A: |-----------------------|-----------------------|
E: |-----------------------|-----------------------|

Second part 2x

Then second chorus:

e: |-----------------------|-----------------------|
B: |--1--1----1--1----0----|--1--1--1--1----3--3---|
G: |--2--2----2--2----2----|--2--2--2--2----2--2---|
D: |--2--2----2--2----2----|--2--2--2--2----2--2---|
A: |-----------------------|-----------------------|
E: |-----------------------|-----------------------|

E: |-----------------------|-----------------------|
B: |--1--1----1--1-----0---|--1--1--1--1--0--------|
G: |--2--2----2--2-----2---|--2--2--2--2--2--------|
D: |--2--2----2--2-----2---|--2--2--2--2--2--------|
A: |-----------------------|-----------------------|
E: |-----------------------|-----------------------|

First part 6x

First chorus

Second Part 2x

First chorus (different version)

Second part 2x

Second chorus

First part 4x

3 comments on L theme

EDIT: Hm is this a tab

EDIT: Hm is this a tab submission?

Definitely looks like a tab

Definitely looks like a tab submission

And not a recording. This is

And not a recording. This is the actual track. :-p