Ads

Recording: Dead by Daylight - Survivor Theme

Submitted Fri, 06/30/2017 - 21:56
by Rhino

0
Your rating: None

Name of game: Dead by Daylight
Name of song: Survivor Theme
Composer of song: Michel F. April
Name of tabber: Rhino
Date tab was made: Friday, June 30, 2017

Just a heads up this is a very simple version and it is not exact to the actual thing but I think I got pretty close leave a comment if you think I should make any adjustments.

e---------------------------------------
B---------------------------------------
G---------------------------------------
D---------------------------------------
A-----------4-----3-----4-----1---------
E--0--0--0--0--0--0--0--0--0--0--0--0--0

e---------------------------------------
B---------------------------------------
G-----------2-----1-----2-----3---------
D---------------------------------------
A--0--0--0--0--0--0--0--0--0--0--0--0--0
E---------------------------------------