Travelling Elf (Record of Lodoss War) Guitar Tab

Submitted: Jul 03, 2009 by kenor (Last updated: Feb 04, 2010)

5
Average: 5 (1 vote)
Download | Listen
Game: Record of Lodoss War
Composer(s): Kaoru Wada
Style: 2 or more instruments, Fingerstyle, Transcription

AutoScroll: Slow | Medium | Fast
Travelling Elf
~Record of Lodoss War~ 
Composed by: Kaoru Wada
Transcribed by: kenor

Rhytm: 3/4 metrum


Guitar I: (but recorder is really better, see .gp4 for standard notation)
---------

     H        Q       H        Q        H        Q       H        E  E  
E||--0--------0----|--7--------10----|--9--------5----|--0--------0--2--|
B||----------------|-----------------|----------------|-----------------|
G||----------------|-----------------|----------------|-----------------|
D||----------------|-----------------|----------------|-----------------|
A||----------------|-----------------|----------------|-----------------|
E||----------------|-----------------|----------------|-----------------|


     Q    Q    Q       H        Q       H.              H.
E||--3----2----0----|----------------|---------------|--------------|
B||-----------------|--3-------------|--0------------|--L-----------|
G||-----------------|-----------2----|---------------|--------------|
D||-----------------|----------------|---------------|--------------|
A||-----------------|----------------|---------------|--------------|
E||-----------------|----------------|---------------|--------------|


     H        Q       H        Q        H        Q       H        E  E
E||--0--------0----|--7--------10----|--9--------5----|--0--------0--2--|
B||----------------|-----------------|----------------|-----------------|
G||----------------|-----------------|----------------|-----------------|
D||----------------|-----------------|----------------|-----------------|
A||----------------|-----------------|----------------|-----------------|
E||----------------|-----------------|----------------|-----------------|


     Q    Q    Q       H        Q       H.              H.
E||--3----2----0----|-----------2----|--0------------|--L-----------|
B||-----------------|--3-------------|---------------|--------------|
G||-----------------|----------------|---------------|--------------|
D||-----------------|----------------|---------------|--------------|
A||-----------------|----------------|---------------|--------------|
E||-----------------|----------------|---------------|--------------|


     H.               Q    Q    Q       H        Q       H        E  E
E||--10------------|--L----9----7----|--9--------5----|--0--------7--9--|
B||----------------|-----------------|----------------|-----------------|
G||----------------|-----------------|----------------|-----------------|
D||----------------|-----------------|----------------|-----------------|
A||----------------|-----------------|----------------|-----------------|
E||----------------|-----------------|----------------|-----------------|



     H.               Q     Q     Q        H.              H.
E||--10------------|--14----12----10----|--9------------|--L-----------|
B||----------------|--------------------|---------------|--------------|
G||----------------|--------------------|---------------|--------------|
D||----------------|--------------------|---------------|--------------|
A||----------------|--------------------|---------------|--------------|
E||----------------|--------------------|---------------|--------------|


     H.               Q    Q    Q       H        Q       H        E  E
E||--10------------|--L----9----7----|--9--------5----|--0--------0--2--|
B||----------------|-----------------|----------------|-----------------|
G||----------------|-----------------|----------------|-----------------|
D||----------------|-----------------|----------------|-----------------|
A||----------------|-----------------|----------------|-----------------|
E||----------------|-----------------|----------------|-----------------|


     Q    Q    Q       H        Q       H.              H.
E||--3----2----0----|-----------2----|--0------------|--L------------|
B||-----------------|--3-------------|---------------|---------------|
G||-----------------|----------------|---------------|---------------|
D||-----------------|----------------|---------------|---------------|
A||-----------------|----------------|---------------|---------------|
E||-----------------|----------------|---------------|---------------|


     H        Q       H        Q        H        Q       H        E  E  
E||--0--------0----|--7--------10----|--9--------5----|--0--------0--2--|
B||----------------|-----------------|----------------|-----------------|
G||----------------|-----------------|----------------|-----------------|
D||----------------|-----------------|----------------|-----------------|
A||----------------|-----------------|----------------|-----------------|
E||----------------|-----------------|----------------|-----------------|


     Q    Q    Q       H        Q       H.              H.
E||--3----2----0----|----------------|---------------|--------------|
B||-----------------|--3-------------|--0------------|--L-----------|
G||-----------------|-----------2----|---------------|--------------|
D||-----------------|----------------|---------------|--------------|
A||-----------------|----------------|---------------|--------------|
E||-----------------|----------------|---------------|--------------|


     H        Q       H        Q        H        Q       H        E  E
E||--0--------0----|--7--------10----|--9--------5----|--0--------0--2--|
B||----------------|-----------------|----------------|-----------------|
G||----------------|-----------------|----------------|-----------------|
D||----------------|-----------------|----------------|-----------------|
A||----------------|-----------------|----------------|-----------------|
E||----------------|-----------------|----------------|-----------------|


     Q    Q    Q       H        Q       H.              H.
E||--3----2----0----|-----------2----|--0------------|--L-----------|
B||-----------------|--3-------------|---------------|--------------|
G||-----------------|----------------|---------------|--------------|
D||-----------------|----------------|---------------|--------------|
A||-----------------|----------------|---------------|--------------|
E||-----------------|----------------|---------------|--------------|



Guitar II:
---------
                                  
     ^                ^                ^                ^
     H        Q       H        Q       H        Q       H        E  E 
E||--0--------0----|-----------0----|--0--------0----|-----------0-----|
B||--0-------------|----------------|--2--------2----|-----------------|
G||--0-------------|--0-------------|--2-------------|--0--------------|
D||----------------|--2-------------|----------------|--2--------------|
A||----------------|--2-------------|----------------|--2--------------|
E||--0-------------|--0-------------|--0-------------|--0-----------0--|

     ^                ^                ^                ^
     H        Q       H        Q       H        Q       H        Q
E||--0--------3----|----------------|--3-------------|--2--------2----|
B||--1--------1----|--3-------------|--0--------0----|--0--------0----|
G||--0-------------|--2--------2----|--0--------0----|--2-------------|
D||----------------|--0--------0----|----------------|----------------|
A||--3-------------|----------------|----------------|--2-------------|
E||----------------|----------------|--3-------------|----------------|

     ^                ^                ^                ^
     H        Q       H        Q       H        Q       H        E  E
E||--0--------0----|-----------0----|--0--------0----|-----------0-----|
B||--0-------------|----------------|--2--------2----|-----------------|
G||--0-------------|--0-------------|--2-------------|--0--------------|
D||----------------|--2-------------|----------------|--2--------------|
A||----------------|--2-------------|----------------|--2--------------|
E||--0-------------|--0-------------|--0-------------|--0-----------0--|

     ^                ^                ^                ^
     H        Q       H        Q       H        Q       Q    Q    Q
E||--0--------3----|----------------|--0-------------|--0--------------|
B||--1--------1----|--3-------------|--0-------------|--0--------------|
G||--0-------------|--2--------2----|--2--------2----|--0--------------|
D||----------------|--0--------0----|-----------2----|-----------------|
A||--3-------------|----------------|----------------|-----------------|
E||----------------|----------------|--0-------------|--0----0----2----|


     E  E  E  E  Q       E  E  E  E  Q       E  E  E  E  Q       E  E  E  E  Q
E||-------------------|--3----------------|-------------------|--0----------------|
B||--------------0----|--------------0----|--------------2----|--------------2----|
G||--------0----------|--------0----------|--------2----------|--------2----------|
D||-----0-----0-------|-----0-----0-------|-----2-----2-------|-----2-----2-------|
A||-------------------|-------------------|--0----------------|--0----------------|
E||--3----------------|--3----------------|-------------------|-------------------|


     E  E  E  E  Q       E  E  E  E  Q       E  E  E  E  Q       E  E  Q    Q
E||-------------------|--3----------------|-------------------|--0---------------|
B||--------------0----|--------------0----|--------------2----|--------2---------|
G||--------0----------|--------0----------|--------2----------|-------------2----|
D||-----0-----0-------|-----0-----0-------|-----2-----2-------|-----2------------|
A||-------------------|-------------------|--0----------------|--0---------------|
E||--3----------------|--3----------------|-------------------|------------------|


     E  E  E  E  Q       E  E  E  E  Q       E  E  E  E  Q       E  E  E  E  Q 
E||-------------------|--3----------------|-------------------|--0----------------|
B||--------------0----|--------------0----|--------------2----|--------------2----|
G||--------0----------|--------0----------|--------2----------|--------2----------|
D||-----0-----0-------|-----0-----0-------|-----2-----2-------|-----2-----2-------|
A||-------------------|-------------------|--0----------------|--0----------------|
E||--3----------------|--3----------------|-------------------|-------------------|

                                                                 ^
     E  E  E  E  Q       E  E  E  E  Q       E  E  E  E  Q       H.
E||--------------0----|--------------2----|-------------------|---------------|
B||-----------1-------|--------3----------|--------------0----|---------------|
G||--------0----------|-----2-----2-------|-----------2-------|--1------------|
D||-----2-------------|--0----------------|--------2----------|--2------------|
A||--3----------------|-------------------|-----2-------------|---------------|
E||-------------------|-------------------|--0----------------|--0------------|

     ^                                     ^
     Q    Q    Q       E  E  Q    E  E     Q    Q    Q       E  E  Q    E  E
E||--0--------------|--0----------------|-----------------|--0----------------|
B||--0--------------|--------0----------|--2--------------|-------------0-----|
G||--0---------0----|-------------0-----|--2---------2----|--------0----------|
D||-------2---------|-----2----------2--|--2----2---------|-----2-------------|
A||-----------------|-------------------|--0--------------|-------------------|
E||--0--------------|--0----------------|-----------------|--0-------------0--|


     E  E  E  E  Q       E  E  Q    Q       E  E  E  E  E  E    E  E  Q     Q
E||--0-----------0----|------------------|--------------3-----|------------------|
B||-----------1-------|--------3---------|-----------0--------|-------------0----|
G||--------0----------|-----2-------2----|--------0-----------|--------2---------|
D||-----2-------------|--0---------------|-----0-----------0--|-----1------------|
A||--3----------------|------------------|--------------------|--2---------------|
E||-------------------|------------------|--3-----------------|------------------|

     ^                                      ^
     E  E  Q    Q       E  E  Q    E  E     E  E  Q    E  E     E  E  Q    E  E	
E||--0---------------|--0----------------|-------------------|--0----------------|
B||--0----------0----|-------------0-----|--2----------2-----|-------------0-----|
G||--0-----0---------|--------0----------|--2-----2----------|--------0----------|
D||-----2------------|-----2----------2--|-----2----------2--|-----2-------------|
A||------------------|-------------------|--0----------------|-------------------|
E||--0---------------|--0----------------|-------------------|--0-------------0--|

     ^               ^                                   ^
     H.              H.              E  E  E  E  Q       H.
E||--0------------|--2------------|-------------------|--0--||
B||--1------------|--3------------|--------------0----|-----||
G||--0------------|--2------------|-----------2-------|--1--||
D||---------------|--0------------|--------2----------|-----||
A||--3------------|---------------|-----2-------------|--2--||
E||---------------|---------------|--0----------------|--0--||



Legend:
-------

H - half
Q - quarter
E - 8th
L - tied note
. - dotted
^ - brush up
Login or Register to remove this ad.

1 comment on Travelling Elf

this sounds great I'm gonna

this sounds great I'm gonna have my sister play the recorder and then I will play the guitar :D