Ads

Band Land - Going Heights (Rayman) Bass/Guitar Tab

Submitted: Sep 07, 2011 by hashel

5
Average: 5 (1 vote)
Download | Listen
Game: Rayman
Composer(s): St├ęphane Bellanger, Pete Anthony
Style: 2 or more instruments, Transcription

Click here for a video example.

AutoScroll: Slow | Medium | Fast
Please, downlad GP5 file for the other tracks =)

Melody

E |----|--------17------------------------------------------|
B |----|--------------17----------------15----17----15------|
G |----|--14------------------------------------------------|
D |----|----------------------------------------------------|
A |----|----------------------------------------------------|
E |----|----------------------------------------------------|


----------------------------------------------------|
--14----15----17------------------------------------|
--------------------14------------------------------|
--------------------------------------------17------|
----------------------------------------------------|
----------------------------------------------------|


--------17------------------------------------------|
--------------17----------------15----17----15------|
--14------------------------------------------------|
----------------------------------------------------|
----------------------------------------------------|
----------------------------------------------------|


----------------------------||
--14-15-17------------------||
----------------------------||
----------------------------||
----------------------------||
----------------------------||


-------17------------------------------------------|
-------------17----------------15----17----15------|
o14------------------------------------------------|
o--------------------------------------------------|
---------------------------------------------------|
---------------------------------------------------|


----------------------------------------------------|
--14----15----17------------------------------------|
--------------------14------------------------------|
--------------------------------------------17------|
----------------------------------------------------|
----------------------------------------------------|


--------17------------------------------------------|
--------------17----------------15----17----15------|
--14------------------------------------------------|
----------------------------------------------------|
----------------------------------------------------|
----------------------------------------------------|


----------------------------|
--14-15-17------------------|
----------------------------|
----------------------------|
----------------------------|
----------------------------|


----------------------------------------------------|
----------------------------------------------------|
----------------------------------------------------|
--------7-------------------------------------------|
--------------7-----------------5-----7-----5-------|
--5-------------------------------------------------|


----------------------------------------------------|
----------------------------------------------------|
----------------------------------------------------|
----------------------------------------------------|
--4-----5-----7-----------------------------10------|
--------------------5-------------------------------|


----------------------------------------------------|
--------10------------------------------------------|
--------------9-----------------7-----9-----7-------|
--7-------------------------------------------------|
----------------------------------------------------|
----------------------------------------------------|


----------------------------|
----------------------------|
--6--7--9--10---------------|
----------------------------|
----------------------------|
----------------------------|


----------------------------------------------------|
--14----15h14---------------------------------------|
--------------16----13------------------------------|
----------------------------------------------------|
----------------------------------------------------|
----------------------------------------------------|


----------------------------------------------------|
--14----15h14---------------------------------------|
--------------16----12------------------------------|
----------------------------------------------------|
----------------------------------------------------|
----------------------------------------------------|


--------------------------------------------14------|
--14----15-14-------14------------------------------|
--------------16------------------------------------|
----------------------------------------------------|
----------------------------------------------------|
----------------------------------------------------|


----------------------------------------------------|-------|-------|-------|
--14----15-14-------15----------------14------------|-------|-------|-------|
--------------16------------------------------------|-------|-------|-------|
----------------------------------------------------|-------|-------|-------|
----------------------------------------------------|-------|-------|-------|
----------------------------------------------------|-------|-------|-------|


-------|----------------------------------------------------|
-------|----------------------------------------------------|
-------|-----------------------------------------14-16-18---|
-------|----------------------------------------------------|
-------|----------------------------------------------------|
-------|----------------------------------------------------|


--------14------------------------------------------|
--17------------------------------------------------|
----------------------------------------------------|
----------------------------------------------------|
----------------------------------------------------|
----------------------------------------------------|


--------12----10-9----------|-----10-9-------------------|
-----10----10----------10---|-----------10-7-------------|
----------------------------|-----------------9--7--6----|
----------------------------|----------------------------|
----------------------------|----------------------------|
----------------------------|----------------------------|


----------------------------------------------------|
----------------------------------------------------|
-----------------------------------------14-16-18---|
----------------------------------------------------|
----------------------------------------------------|
----------------------------------------------------|


--------14------------------------------------------|
--17------------------------------------------------|
----------------------------------------------------|
----------------------------------------------------|
----------------------------------------------------|
----------------------------------------------------|


--------12----10-9----------|-----10-9-------------------|-------|-------|
-----10----10----------10---|-----------10-7-------------|-------|-------|
----------------------------|-----------------9--7--6----|-------|-------|
----------------------------|----------------------------|-------|-------|
----------------------------|----------------------------|-------|-------|
----------------------------|----------------------------|-------|-------|


--------12----10-9----------|-----10-9------------------||-------||
-----10----10----------10---|-----------10-7------------||-------||
----------------------------|-----------------9--7--6--o||--9----||
----------------------------|--------------------------o||-------||
----------------------------|---------------------------||-------||
----------------------------|---------------------------||-------||

Rhythm

E |----|----|----|----|--------0-------------------||
B |----|----|----|----|--------------3--2----------||
G |----|----|----|----|-----2-----2-----------2----||
D |----|----|----|----|----------------------------||
A |----|----|----|----|----------------------------||
E |----|----|----|----|----------------------------||


-0-----0-----0-----0-----0-----0-----0-----0-------|
-2-----2-----2-----2-----2-----2-----2-----2-------|
o--------------------------------------------------|
o--------------------------------------------------|
---------------------------------------------------|
---------------------------------------------------|


--0-----0-----0-----0-----0-----0-----0-----0-------|
--0-----0-----0-----0-----0-----0-----0-----0-------|
----------------------------------------------------|
----------------------------------------------------|
----------------------------------------------------|
----------------------------------------------------|


--2-----2-----2-----2-----2-----2-----2-----2-------|
--3-----3-----3-----3-----3-----3-----3-----3-------|
----------------------------------------------------|
----------------------------------------------------|
----------------------------------------------------|
----------------------------------------------------|


----------------------------------------------------|
--3-----3-----3-----3-----3-----3-----3-----3-------|
--2-----2-----2-----2-----2-----2-----2-----2-------|
----------------------------------------------------|
----------------------------------------------------|
----------------------------------------------------|


--0-----------------------0-----------------------0-----------------------0-----
--2-----------------------2-----------------------2-----------------------2-----
--------------------------------------------------------------------------------
--------------------------------------------------------------------------------
--------------------------------------------------------------------------------
--------------------------------------------------------------------------------


--------------------|
--------------------|
--------------------|
--------------------|
--------------------|
--------------------|


--0-----------------------0-----------------------0-----------------------0-----
--0-----------------------0-----------------------0-----------------------0-----
--------------------------------------------------------------------------------
--------------------------------------------------------------------------------
--------------------------------------------------------------------------------
--------------------------------------------------------------------------------


--------------------|
--------------------|
--------------------|
--------------------|
--------------------|
--------------------|


--2-----------------------2-----------------------2-----------------------2-----
--0-----------------------0-----------------------0-----------------------0-----
--------------------------------------------------------------------------------
--------------------------------------------------------------------------------
--------------------------------------------------------------------------------
--------------------------------------------------------------------------------


--------------------|
--------------------|
--------------------|
--------------------|
--------------------|
--------------------|


--1-----------------------1-----------------------1-----------------------1-----
--3-----------------------3-----------------------3-----------------------3-----
--------------------------------------------------------------------------------
--------------------------------------------------------------------------------
--------------------------------------------------------------------------------
--------------------------------------------------------------------------------


--------------------|----|----|----|----|----|----|----|----|
--------------------|----|----|----|----|----|----|----|----|
--------------------|----|----|----|----|----|----|----|----|
--------------------|----|----|----|----|----|----|----|----|
--------------------|----|----|----|----|----|----|----|----|
--------------------|----|----|----|----|----|----|----|----|


--0-----0-----0-----0-----0-----0-----0-----0-------|
--2-----2-----2-----2-----2-----2-----2-----2-------|
----------------------------------------------------|
----------------------------------------------------|
----------------------------------------------------|
----------------------------------------------------|


--0-----0-----0-----0-----0-----0-----0-----0-------|
--0-----0-----0-----0-----0-----0-----0-----0-------|
----------------------------------------------------|
----------------------------------------------------|
----------------------------------------------------|
----------------------------------------------------|


--2-----2-----2-----2-----2-----2-----2-----2-------|
--3-----3-----3-----3-----3-----3-----3-----3-------|
----------------------------------------------------|
----------------------------------------------------|
----------------------------------------------------|
----------------------------------------------------|


----------------------------------------------------|
--3-----3-----3-----3-----3-----3-----3-----3-------|
--2-----2-----2-----2-----2-----2-----2-----2-------|
----------------------------------------------------|
----------------------------------------------------|
----------------------------------------------------|


--0-----0-----0-----0-----0-----0-----0-----0-------|
--2-----2-----2-----2-----2-----2-----2-----2-------|
----------------------------------------------------|
----------------------------------------------------|
----------------------------------------------------|
----------------------------------------------------|


--0-----0-----0-----0-----0-----0-----0-----0-------|
--0-----0-----0-----0-----0-----0-----0-----0-------|
----------------------------------------------------|
----------------------------------------------------|
----------------------------------------------------|
----------------------------------------------------|


--2-----2-----2-----2-----2-----2-----2-----2-------|
--3-----3-----3-----3-----3-----3-----3-----3-------|
----------------------------------------------------|
----------------------------------------------------|
----------------------------------------------------|
----------------------------------------------------|


----------------------------------------------------|
--3-----3-----3-----3-----3-----3-----3-----3-------|
--2-----2-----2-----2-----2-----2-----2-----2-------|
----------------------------------------------------|
----------------------------------------------------|
----------------------------------------------------|


--0-----0-----0-----0-----0-----0-----0-----0-------|
--2-----2-----2-----2-----2-----2-----2-----2-------|
----------------------------------------------------|
----------------------------------------------------|
----------------------------------------------------|
----------------------------------------------------|


--0-----0-----0-----0-----0-----0-----0-----0-------|
--0-----0-----0-----0-----0-----0-----0-----0-------|
----------------------------------------------------|
----------------------------------------------------|
----------------------------------------------------|
----------------------------------------------------|


--2-----2-----2-----2-----2-----2-----2-----2-------|
--3-----3-----3-----3-----3-----3-----3-----3-------|
----------------------------------------------------|
----------------------------------------------------|
----------------------------------------------------|
----------------------------------------------------|


---------------------------------------------------||--0----||
--3-----3-----3-----3-----3-----3-----3-----3------||--2----||
--2-----2-----2-----2-----2-----2-----2-----2-----o||-------||
--------------------------------------------------o||-------||
---------------------------------------------------||-------||
---------------------------------------------------||-------||

Bass Line

G |----|-------|-------|-------|-------||-2--------------------2----|
D |----|-------|-------|-------|-------||o--------------------------|
A |----|-------|-------|-------|-------||o--------------------------|
E |----|-------|-------|-------|-------||---------------------------|


----------------------------|----------------------------|
--2--------------------2----|----------------------------|
----------------------------|--2--------------------2----|
----------------------------|----------------------------|


----------------------------|
--------------------0-------|
----------------------------|
----------------------------|


----------------------------------------------------|
----------------------------------------------------|
--0-----------0-----------0-----------0-------------|
----------------------------------------------------|


----------------------------------------------------|
----------------------------------------------------|
----------------------------------------------------|
--0-----------0-----------0-----------0-------------|


----------------------------------------------------|
----------------------------------------------------|
--2-----------2-----------2-----------2-------------|
----------------------------------------------------|


----------------------------------------------------|
----------------------------------------------------|
----------------------------------------------------|
----------------------------------------------------|


--2-------------------------|--0-----2-----0--------0----|
-----------------------2----|--------------------2-------|
----------------------------|----------------------------|
----------------------------|----------------------------|


--2--------------4--6--7----|--7--------9--------7-------|
----------------------------|----------------------------|
----------------------------|----------------------------|
----------------------------|----------------------------|


----------------------------|-------|--7--------------4--0-------|
----------------------------|--2----|-----------------------0----|
--0--------------------0----|-------|----------------------------|
----------------------------|-------|----------------------------|


----------------|----------------------------------------------------|
--3--2--0-------|----------------------------------------------------|
-----------2----|--0-----------0-----------0-----------0-------------|
----------------|----------------------------------------------------|


----------------------------------------------------|
----------------------------------------------------|
----------------------------------------------------|
--0-----------0-----------0-----------0-------------|


----------------------------------------------------|
----------------------------------------------------|
--2-----------2-----------2-----------2-------------|
----------------------------------------------------|


----------------------------------------------------|
--------------------------------------0-------------|
--------------------------------------------4-------|
----------------------------------------------------|


----------------------------------------------------|
----------------------------------------------------|
--0-----------0-----------0-----------0-------------|
----------------------------------------------------|


----------------------------------------------------|
----------------------------------------------------|
----------------------------------------------------|
--0-----------0-----------0-----------0-------------|


----------------------------------------------------|
----------------------------------------------------|
--2-----------2-----------2-----------2-------------|
----------------------------------------------------|


----------------------------------------------------|
--------------------------------------0-------------|
--------------------------------------------4-------|
----------------------------------------------------|


----------------------------------------------------|
----------------------------------------------------|
--0-----------0-----------0-----------0-------------|
----------------------------------------------------|


----------------------------------------------------|
----------------------------------------------------|
----------------------------------------------------|
--0-----------0-----------0-----------0-------------|


----------------------------------------------------|
----------------------------------------------------|
--2-----------2-----------2-----------2-------------|
----------------------------------------------------|


---------------------------------------------------||-------||
--------------------------------------0-----------o||-------||
--------------------------------------------4-----o||-------||
---------------------------------------------------||-------||
Login or Register to remove this ad.