Ads

Hangar (Raptor: Call of the Shadows) Guitar Tab

Submitted: Apr 23, 2010 by trickypat

0
Download | Listen
Game: Raptor: Call of the Shadows
Composer(s): Paul Radek
Style: Arrangement, Fingerstyle

AutoScroll: Slow | Medium | Fast

Hangar
from Raptor: Call of the Shadows
composed by Paul Radek
arranged by trickypat
tabbed by trickypat
TablEdited by trickypat

standard tuning, no capo, bpm=100

v1.00
Easy tab, no more than 10 minutes.

    |       |       |       |          |       |       |       |          |       |       |       |         
E ||---------------------------------|---------------------------------|||0---0---0---0---0---0---0---0----|
B |*---------------------------------|---------------------------------*|*---------------------------------|
G ||---------------------------------|---------------------------------|||2---2---2---2---2---2---2---2----|
D ||---------------------------------|---------------------------------|||---------------------------------|
A |*0--------------------------------|---------------------------------*|*0--------------------------------|
E ||----------------------------0----|-1---------------3-----------0---|||----------------------------0----|
 
    |       |       |       |     5X   |       |       |       |         
E |-1---1---1---1-------------------||----------------------------------|
B |-----------------3---3---3---3---*|----------------------------------|
G |-2---2---2---2---2---2---2---2---||----------------------------------|
D |---------------------------------||----------------------------------|
A |---------------------------------*|----------------------------------|
E |-1---------------3-----------0---||----------------------------------|
 

Created with TablEdit http://www.tabledit.com/

Login or Register to remove this ad.