Ads

Bravo Sector 4 (Raptor: Call of the Shadows) Guitar Tab

Submitted: Apr 12, 2010 by trickypat

5
Average: 5 (1 vote)
Download | Listen
Game: Raptor: Call of the Shadows
Composer(s): Paul Radek
Style: Fingerstyle, Transcription

AutoScroll: Slow | Medium | Fast
Bravo Sector 4
from Raptor: Call of the Shadows
composed by Paul Radek
arranged by trickypat
tabbed by trickypat
TablEdited by trickypat

standard tuning, no capo, bpm=96

aka. Outer Regions Four

v1.00
Easy tab, but tricky and fast to play. 

    |       |       |       |          |       |       |       |          |       |       |       |         
E |-0---0-0-------0---0---0---1-1----|-0---0-0-------0---0---0----------||0---0-0-------0---0---0---1-1----|
B |---------3---3--------------------|---------3---3-----------1---0-1--|*--------3---3--------------------|
G |-2---2-2-2---2-2---2---2---2-2----|-2---2-2-2---2-2---2---2----------||2---2-2-2---2-2---2---2---2-2----|
D |----------------------------------|-------------------------2---0-2--||---------------------------------|
A |----------------------------------|----------------------------------|*0-------0-------0-------0--------|
E |----------------------------------|----------------------------------||---------------------------------|
 
    |       |       |       |          |       |       |       |          |       |       |       |         
E |-0---0-0-------0---0---0---------|||---------------------------------|----------------------------------|
B |---------3---3-----------1---0-1-*|*--------------0---0---0---1-1----|---------------0---0---0---1-1----|
G |-2---2-2-2---2-2---2---2---------|||2---2-2-2---2-0---0---0---2-2----|-2---2-2-2---2-0---0---0---2-2----|
D |-------------------------2---0-2-|||3---3-3-3---3--------------------|-3---3-3-3---3--------------------|
A |-0-------0-------0---------------*|*---------------------------------|----------------------------------|
E |---------------------------------|||1-------1-------1-------0--------|-1-------1-------1-------0--------|
 
    |       |       |       |          |       |       |       |         
E |----------------------------------|---------------------------------||
B |----------------------------------|---------------------------------*|
G |----------------------------------|---------------------------------||
D |----------------------------------|---------------------------------||
A |-0---0-0-0---0-2---2---2---3-2-3--|-0---0-0-0---0-2---2---2---3-2-3-*|
E |-5-------5-------5-------5--------|-5-------5-------5-------5-------||
 

Created with TablEdit http://www.tabledit.com/
Login or Register to remove this ad.