Ads

Purity of Your Smile (Amatsu Theme) (Ragnarok Online) Guitar Tab

Submitted: Jul 02, 2009 by CpxAzn (Last updated: Feb 04, 2010)

5
Average: 5 (4 votes)
Download | Listen
Game: Ragnarok Online
Composer(s): soundTeMP
Style: 2 or more instruments, Transcription

This song is also called BGM 76

Click here for a video example.

AutoScroll: Slow | Medium | Fast
                      Purity of your smile (Amatsu Theme)                       


                                                                Tabbed by CpxAzn
Track 8



      Q.       E   E.   E.   E      W                  
E||-----------------------------|---------------------|
B||-----------------------------|---------------------|
G||--11~------11--11--------11--|--13~----------------|
D||--------------------11-------|---------------------|
A||-----------------------------|---------------------|
E||-----------------------------|---------------------|


   Q.       E   E.   E.   E      H          E.   E.   E   
-----------------------------|---------------------------|
-----------------------------|-----------------------12--|
--11~------11--11---13---15--|--13~--------13---15-------|
-----------------------------|---------------------------|
-----------------------------|---------------------------|
-----------------------------|---------------------------|


   H          H             Q.       E   E.   E.   E      H         H          
------------------------|-----------------------------|-----------------------|
--14~-------------------|-------------------------11--|--12~------------------|
-------------10~--------|--13~------11--11---13-------|-------------8~--------|
------------------------|-----------------------------|-----------------------|
------------------------|-----------------------------|-----------------------|
------------------------|-----------------------------|-----------------------|


   Q.      E   Q     Q        Q.       E   E.   E.   E      W                  
--------------------------|-----------------------------|---------------------|
--------------------------|-----------------------------|---------------------|
--11------10--10~---------|--11~------11--11--------11--|--13~----------------|
--------------------------|--------------------11-------|---------------------|
--------------------------|-----------------------------|---------------------|
--------------------------|-----------------------------|---------------------|


   Q.       E   E.   E.   E      H          E.   E.   E   
-----------------------------|---------------------------|
-----------------------------|-----------------------12--|
--11~------11--11---13---15--|--13~--------13---15-------|
-----------------------------|---------------------------|
-----------------------------|---------------------------|
-----------------------------|---------------------------|


   H          H             Q.       E   E.   E.   E      Q    Q     Q    Q     
------------------------|-----------------------------|------------------------|
--14~-------------------|-------------------------11--|--12---------------9----|
-------------10~--------|--13~------11--11---13-------|--------8----11---------|
------------------------|-----------------------------|------------------------|
------------------------|-----------------------------|------------------------|
------------------------|-----------------------------|------------------------|


   H         E   E   E   E     H         E   E   E   E   
----------------------------|---------------------------|
----------------------------|---------------------------|
--11~--------L--11--10--11--|--8~--------L--11--10--11--|
----------------------------|---------------------------|
----------------------------|---------------------------|
----------------------------|---------------------------|


   H          E.   E.   E      H          Q     Q        H.            E   E   
---------------------------|-------------------------|------------------------|
-----------------------12--|--14~--------------------|------------------------|
--13~--------13---15-------|-------------15----------|--15~---------------15--|
---------------------------|-------------------13----|------------------------|
---------------------------|-------------------------|------------------------|
---------------------------|-------------------------|------------------------|


   E   S  S  E   E   Q.       E      E   S  S  E   E   Q      E   E   
---------------------------------|-----------------------------------|
---------------------------------|------------14--16--14~------------|
--13--13-15-13--11-----------15--|--13--13-15----------------13--15--|
--------------------13~----------|-----------------------------------|
---------------------------------|-----------------------------------|
---------------------------------|-----------------------------------|


   Q.      E   E   E   E   E      Q     E   E   H          
------------------------------|---------------------------|
--------------------------14--|--16----14------14~--------|
------------------13--15------|------------15-------------|
--13------13--13--------------|---------------------------|
------------------------------|---------------------------|
------------------------------|---------------------------|


   H         E   E   E   E      H          E.   E.   E   
----------------------------|---------------------------|
----------------------------|-----------------------12--|
--15~--------L--15--13--15--|--13~--------13---15-------|
----------------------------|---------------------------|
----------------------------|---------------------------|
----------------------------|---------------------------|


   H          Q     Q        H.            E   E   
-------------------------|------------------------|
--14~--------------------|------------------------|
-------------15----------|--15~---------------15--|
-------------------13----|------------------------|
-------------------------|------------------------|
-------------------------|------------------------|


   E   S  S  E   E   Q.       E      E   S  S  E   E   Q      E   E   
---------------------------------|-----------------------------------|
---------------------------------|------------14--16--14~------------|
--13--13-15-13--11-----------15--|--13--13-15----------------13--15--|
--------------------13~----------|-----------------------------------|
---------------------------------|-----------------------------------|
---------------------------------|-----------------------------------|


   Q.      E   E   E   E   E      Q.      E   H          
------------------------------|-------------------------|
--------------------------14--|-------------------------|
------------------13--15------|--15------13--13~--------|
--13------13--13--------------|-------------------------|
------------------------------|-------------------------|
------------------------------|-------------------------|


   Q.       E   E.   E.   E      W                  
-----------------------------|---------------------|
-----------------------------|---------------------|
--11~------11--11--------11--|--13~----------------|
--------------------11-------|---------------------|
-----------------------------|---------------------|
-----------------------------|---------------------|


   Q.       E   E.   E.   E      H          E.   E.   E   
-----------------------------|---------------------------|
-----------------------------|-----------------------12--|
--11~------11--11---13---15--|--13~--------13---15-------|
-----------------------------|---------------------------|
-----------------------------|---------------------------|
-----------------------------|---------------------------|


   H          H             Q.       E   E.   E.   E      H         H          
------------------------|-----------------------------|-----------------------|
--14~-------------------|-------------------------11--|--12~------------------|
-------------10~--------|--13~------11--11---13-------|-------------8~--------|
------------------------|-----------------------------|-----------------------|
------------------------|-----------------------------|-----------------------|
------------------------|-----------------------------|-----------------------|


   Q.      E   Q     Q        Q.       E   E.   E.   E      W                  
--------------------------|-----------------------------|---------------------|
--------------------------|-----------------------------|---------------------|
--11------10--10~---------|--11~------11--11--------11--|--13~----------------|
--------------------------|--------------------11-------|---------------------|
--------------------------|-----------------------------|---------------------|
--------------------------|-----------------------------|---------------------|


   Q.       E   E.   E.   E      H          E.   E.   E   
-----------------------------|---------------------------|
-----------------------------|-----------------------12--|
--11~------11--11---13---15--|--13~--------13---15-------|
-----------------------------|---------------------------|
-----------------------------|---------------------------|
-----------------------------|---------------------------|


   H          H             Q.       E   E.   E.   E      Q    Q     Q    Q     
------------------------|-----------------------------|------------------------|
--14~-------------------|-------------------------11--|--12---------------9----|
-------------10~--------|--13~------11--11---13-------|--------8----11---------|
------------------------|-----------------------------|------------------------|
------------------------|-----------------------------|------------------------|
------------------------|-----------------------------|------------------------|


   H         E   E   E   E     H         E   E   E   E   
----------------------------|---------------------------|
----------------------------|---------------------------|
--11~--------L--11--10--11--|--8~--------L--11--10--11--|
----------------------------|---------------------------|
----------------------------|---------------------------|
----------------------------|---------------------------|


   H          E.   E.   E      H          Q     Q        H.            E   E   
---------------------------|-------------------------|------------------------|
-----------------------12--|--14~--------------------|------------------------|
--13~--------13---15-------|-------------15----------|--15~---------------15--|
---------------------------|-------------------13----|------------------------|
---------------------------|-------------------------|------------------------|
---------------------------|-------------------------|------------------------|


   E   S  S  E   E   Q.       E      E   S  S  E   E   Q      E   E   
---------------------------------|-----------------------------------|
---------------------------------|------------14--16--14~------------|
--13--13-15-13--11-----------15--|--13--13-15----------------13--15--|
--------------------13~----------|-----------------------------------|
---------------------------------|-----------------------------------|
---------------------------------|-----------------------------------|


   Q.      E   E   E   E   E      Q     E   E   H          
------------------------------|---------------------------|
--------------------------14--|--16----14------14~--------|
------------------13--15------|------------15-------------|
--13------13--13--------------|---------------------------|
------------------------------|---------------------------|
------------------------------|---------------------------|


   H         E   E   E   E      H          E.   E.   E   
----------------------------|---------------------------|
----------------------------|-----------------------12--|
--15~--------L--15--13--15--|--13~--------13---15-------|
----------------------------|---------------------------|
----------------------------|---------------------------|
----------------------------|---------------------------|


   H          Q     Q        H.            E   E   
-------------------------|------------------------|
--14~--------------------|------------------------|
-------------15----------|--15~---------------15--|
-------------------13----|------------------------|
-------------------------|------------------------|
-------------------------|------------------------|


   E   S  S  E   E   Q.       E      E   S  S  E   E   Q      E   E   
---------------------------------|-----------------------------------|
---------------------------------|------------14--16--14~------------|
--13--13-15-13--11-----------15--|--13--13-15----------------13--15--|
--------------------13~----------|-----------------------------------|
---------------------------------|-----------------------------------|
---------------------------------|-----------------------------------|


   Q.      E   E   E   E   E      Q.      E   Q      
------------------------------|---------------------|
--------------------------14--|---------------------|
------------------13--15------|--15------13--13~----|
--13------13--13--------------|---------------------|
------------------------------|---------------------|
------------------------------|---------------------|


   E   E   Q     E   E   E   S  S     E   E   E   S  S  E   E   Q      
----------------------------------|-----------------------------------|
----------------------------------|------14--16--16-14----------------|
--13--15--------13--15---------13-|--15----------------15--13--15~----|
----------13------------13--13----|-----------------------------------|
----------------------------------|-----------------------------------|
----------------------------------|-----------------------------------|


   E   E   Q     E   E   E   S  S     E   E   E   S  S  E   E   Q      
----------------------------------|-----------------------------------|
----------------------------------|-----------------------------------|
--13--15--------13--15------------|------11---------------------------|
----------13------------13--13-11-|--13------13--13-11-----11--13~----|
----------------------------------|--------------------13-------------|
----------------------------------|-----------------------------------|


   E   E   Q     E   E   E   S  S     E   E   E   S  S  E   E   Q      
----------------------------------|-----------------------------------|
----------------------------------|------14--16--16-14----------------|
--13--15--------13--15---------13-|--15----------------15--13--15~----|
----------13------------13--13----|-----------------------------------|
----------------------------------|-----------------------------------|
----------------------------------|-----------------------------------|


   E   E   Q     E   E   E   S  S     E   E   E   S  S  E   E   Q      
----------------------------------|------14--16--16-18-16--14---------|
------14--16--------14--16--16-14-|--16------------------------16~----|
--15------------15----------------|-----------------------------------|
----------------------------------|-----------------------------------|
----------------------------------|-----------------------------------|
----------------------------------|-----------------------------------|


   E   E   Q     E   E   E   S  S     E   E   E   S  S  E   E   Q      
----------------------------------|-----------------------------------|
----------------------------------|------14--16--16-14----------------|
--13--15--------13--15---------13-|--15----------------15--13--15~----|
----------13------------13--13----|-----------------------------------|
----------------------------------|-----------------------------------|
----------------------------------|-----------------------------------|


   E   E   Q     E   E   E   S  S     E   E   E   S  S  E   E   Q      
----------------------------------|-----------------------------------|
----------------------------------|-----------------------------------|
--13--15--------13--15------------|------11---------------------------|
----------13------------13--13-11-|--13------13--13-11-----11--13~----|
----------------------------------|--------------------13-------------|
----------------------------------|-----------------------------------|


   E   E   Q     E   E   E   S  S     E   E   E   S  S  E   E   Q      
----------------------------------|-----------------------------------|
----------------------------------|------14--16--16-14----------------|
--13--15--------13--15---------13-|--15----------------15--13--15~----|
----------13------------13--13----|-----------------------------------|
----------------------------------|-----------------------------------|
----------------------------------|-----------------------------------|


   E   E   Q     E   E   E   S  S     E   E   E   S  S  E   E   Q      
----------------------------------|------14--16--16-18-16--14---------|
------14--16--------14--16--16-14-|--16------------------------16~----|
--15------------15----------------|-----------------------------------|
----------------------------------|-----------------------------------|
----------------------------------|-----------------------------------|
----------------------------------|-----------------------------------|


   E   E   Q     E   E   E   S  S     E   E   E.   S. S. E   Q     
----------------------------------|-------------------------------|
----------------------------------|------14--16---16-14-----------|
--13--15--------13--15---------13-|--15-----------------15--13----|
----------13------------13--13----|-------------------------------|
----------------------------------|-------------------------------|
----------------------------------|-------------------------------|


   W                   
---------------------||
---------------------||
--15~----------------||
---------------------||
---------------------||
---------------------||




Duration Legend
---------------
W - whole
H - half
Q - quarter
E - 8th
S - 16th
T - 32nd
X - 64th
. - note dotted
|-n-|  - n-tuplets


Tablature Legend
----------------
L - tied note
x - dead note
g - grace note
(n) - ghost note
> - accentuded note
NH - natural harmonic
AH - artificial harmonic
TH - tapped harmonic
SH - semi harmonic
PH - pitch harmonic
h - hammer on
p - pull off
b - bend
br - bendRelease
pb - preBend
pbr - preBendRelease
brb - bendReleaseBend
\n/ - tremolo bar dip
\n - tremolo bar dive
-/n - tremolo bar Release up
/n\ - tremolo bar inverted dip
/n - tremolo bar return
-\n - tremolo bar Release down
S - shift slide
s - legato slide
/ -  slide into from below or out of upwards
\ -  slide into from above or out of downwards
~ - vibrato
W - wide vibrato
tr - trill
TP - tremolo picking
T - tapping
S - slap
P - pop
< - fade in
^ - brush up
v - brush down
Login or Register to remove this ad.

2 comments on Purity of Your Smile (Amatsu Theme)

dude this is awesome...i know

5

dude this is awesome...i know this is soo old but can u tab the mintjam arrrangement of this song there is some few extra part that they put at the end and its awesome
www.youtube.com/watch?v=glU-bO8vDEg hope u still active XD

hoping

hope u there this is fucking amazingg