Ads

Not so far away (Ragnarok Online) Guitar Tab

Submitted: Sep 22, 2021 by H.F. (Last updated: Oct 01, 2021)

0
Download | Listen
Game: Ragnarok Online
Composer(s): soundTeMP
Style: Arrangement, Fingerstyle

Click here for a video example.

AutoScroll: Slow | Medium | Fast
Title: Not so far away
Album: Ragnarok Online
Music: soundTeMP
Tabber: H.F.

Tempo = 90

Legend
h - hammer on/pull off


E |--7--------7--7-----10------|
B |----------------------------|
G |--7-----------7-------------|
D |--5-------------------------|
A |----------------------------|
E |----------------------------|


--7-----------------------5h-7h-5-------------------------|--5-----0--3----|
--------------------------------------------8-------------|-----8----------|
--7-------------------------------------------------------|--5-------------|
----------------------------------------------------------|--7-------------|
----------------------------------------------------------|----------------|
----------------------------------------------------------|----------------|


--5--------------------5----|--7--------7--7-----10------|--5--3----|
--3--------------5--8-------|--5-----------5-------------|--3-------|
--4-----------7-------------|--5-------------------------|--4-------|
----------------------------|----------------------------|----------|
----------------------------|----------------------------|----------|
----------------------------|----------------------------|----------|


--0--------------------0----|----------|----------------|-----------0----|
--1-----------------3-------|--3-------|--0-------------|--------3-------|
--2-------------------------|--0--2----|--0--------0----|-----2----------|
----------------------------|-----4----|--0-----2-------|--4-------------|
----------------------------|--0--2----|-----0----------|----------------|
----------------------------|----------|----------------|----------------|


----------|----------|----------------------------|----------------|
----------|----------|--0--------0--0-----3-------|--0-------------|
--2-------|----------|--------------2-------------|--------2--0----|
--5-------|--4-------|--------0-------------------|----------------|
--5-------|----------|----------------------------|----------------|
----------|----------|--3-------------------------|----------------|


----------------------------|----------------|--0-----0--3----|
--------0--------0----------|--------0--3----|--------1-------|
--2-----0-----2-----2--0----|----------------|-----0----------|
--4-------------------------|--2-------------|----------------|
----------------------------|----------------|--3-------------|
--0-------------------------|----------------|----------------|


--------------------------0-------------------------------|
--3--------------------------3--0-------------------------|
--------------0-------------------------------------------|
----------------------------------------------------------|
--2-------------------------------------------------------|
----------------------------------------------------------|


----------------------------|----------------------------|
-----------------------0----|----------------------------|
--2-----------2--0--2-------|--2-------------------------|
--------2-------------------|--0-----------0-----0h-2----|
--0-------------------------|----------------------------|
----------------------------|----------------------------|


----------------------------|----------------------------|
----------------------------|--3-----------------0-------|
--0-----------0-----2h-4----|--------------2--------2----|
--------------2-------------|--------4-------------------|
--------2-------------------|--2-------------------------|
--0-------------------------|----------------------------|


----------------------------|----------------|----------------|
-----------------------0----|--3--------0----|-----------0----|
--0-----------0-----2-------|--------0-------|--2-----2-------|
--------2-----0-------------|-----0----------|-----2----------|
--0-------------------------|----------------|--0-------------|
----------------------------|--3-------------|----------------|


----------------------------|----------------|----------------------------||
----------------------------|-----------0----|--3-------------------------||
--2-----0--------------2----|--0-----2-------|--------------------0--2----||
--0-----------2h-0--2-------|-----0----------|----------------------------||
----------------------------|----------------|----------------------------||
----------------------------|--3-------------|--3-------------------------||


---------------------------|----------------|----------------------------|
-0--------0--0-----3-------|--0-------------|--------0--------0----------|
o0-------------------------|--------2--0----|--2-----------2-----2h-0----|
o--------------------------|--4-------------|--4-------------------------|
---------------------------|----------------|----------------------------|
-3-------------------------|--3-----2-------|--0-------------------------|


----------------|--0-----0--3----|
--------0--3----|--1-------------|
----------------|--0-------------|
--2-------------|----------------|
----------------|--3-------------|
--0-------------|----------------|


----------------------------------------------------------|
--3-----------------------5--3----------------------------|
--4-----------------------------4-----------0-------------|
----------------------------------------------------------|
--2-------------------------------------------------------|
----------------------------------------------------------|


----------------------------|----------------------------|
-----------0--------3--0----|----------------------------|
--2-----------2-------------|--2-------------------------|
--2-------------------------|--4-----------0-----2--4----|
--0-------------------------|--5-------------------------|
----------------------------|----------------------------|


----------------------------|----------------------------|
-----------------------0----|--3-----------------0--3----|
--0-----------0-----2-------|--2-------------------------|
----------------------------|--4-----------5-------------|
----------------------------|--2-------------------------|
--0-------------------------|----------------------------|


--0--------3----------------|----------------|----------------|
--1-----------3h-5--3-------|--3--------0----|-----------0----|
--0--------------------4----|--5-----4-------|--2-------------|
--------------0-------------|----------------|--2-------------|
--0-------------------------|----------------|--0-------------|
----------------------------|--3-------------|----------------|


----------------------------|----------------|----------------------------|
-----------------------0----|----------------|--0-----------------0--3----|
--2-----0-------------------|--0-------------|--0-----------2-------------|
--4-----------2--0--2-------|--0-------------|--------------0-------------|
--5-------------------------|----------------|----------------------------|
----------------------------|--3--------3----|--3-----------2-------------|


--0-----0--3----|----------------------------------------------------------|
--0-----0-------|--3-----------------------5--3----------------------------|
--0-----0-------|--2-----------------------------4-------------------------|
----------------|--4-----------------------------4-------------------------|
----------------|--2-----------------------------------------2-------------|
--0-------------|----------------------------------------------------------|


----------------|----------------|--0-----0--3----|
-----------0----|--3-----0--3----|--1-----1-------|
--2--0--2-------|--0-----0-------|--0-----0-------|
--2-----4-------|--2--------2----|----------------|
--0-----5-------|----------------|--3--------3----|
----------------|----------------|----------------|


--5-----------------7-----5h-7h-5-----------3-------------|--5-------|
--5-----------------------------5-------------------------|--5--5----|
--0-----------------------------0-------------------------|--5--5----|
----------------------------------------------------------|--0-------|
--4-----------------------------------------0-------------|----------|
----------------------------------------------------------|----------|


--2-----7--5----|--3-----3--5----|--7--------5----|
--3-----4-------|--0-----0-------|--7-----7-------|
----------------|--0-----0-------|--7-----7-------|
--0-----4-------|--2--------0----|----------------|
--------6-------|----------------|----------------|
----------------|----------------|--7-------------|


--3--------0--------0-----------0-------|----------------|----------------|
--5-----------------1-----3-------------|--3--------0----|-----------0----|
--5-----------------0-------------------|--4-----0-------|--2-------------|
--------------------0-------------------|--5-------------|--2-----2-------|
--0-------------------------------------|--------2-------|--0--------0----|
----------------------------------------|----------------|----------------|


----------------------------|----------------|---------||--5--------7----|
----------------------------|--1-------------|--0------||--5-------------|
--2-----0--------------2----|--0-------------|--------o||--5-------------|
--0-----------2--0--2-------|----------------|-----0--o||----------------|
----------------------------|----------------|---------||--0-------------|
----------------------------|--3--------3----|--3------||----------------|


--5-----3-----0-----0--5----|--3-------------|-------||
-----------------3----------|--1--------1----|--0----||
--5-------------------------|--0-----2-------|--0----||
--0-------------------------|-----0----------|-------||
----------------------------|----------------|-------||
----------------------------|--3-------------|-------||

Login or Register to remove this ad.