Dream of a Whale (Ragnarok Online) Guitar Tab

Submitted: Feb 02, 2011 by hslesperance (Last updated: Aug 10, 2012)

5
Average: 5 (2 votes)
Download | Listen
Game: Ragnarok Online
Composer(s): soundTeMP
Style: 2 or more instruments, Artificial harmonics, Transcription, Tremolo

AutoScroll: Slow | Medium | Fast
Dream of a Whale
Ragnarok Online
Composed by soundTeMP
Tabbed by hslesperance
2/1/11


Guitars 1 & 3- Standard Tuning
Guitar 2 - Drop C Tuning (CGCFAD)




Guitar 1

  W                 W                 W                 H       H
|-----------------|-----------------|-----------------|------------------|
|-----------------|-----------------|-----------------|------------------|
|-----------------|-1---------------|-3---------------|-1-------0--------|
|-3---------------|-----------------|-----------------|------------------|
|-----------------|-----------------|-----------------|------------------|
|-----------------|-----------------|-----------------|------------------|


   W                  W
|------------------|---------------------|
|------------------|---------------------|
|------------------|--1------------------|
|--3---------------|---------------------|
|------------------|---------------------|
|------------------|---------------------|

                                     |-3-|
   W                  H.           E S S S
|------------------|------------------------|
|------------------|--2--------4---9-8h9p8--|
|--3---------------|------------------------|
|------------------|------------------------|
|------------------|------------------------|
|------------------|------------------------|


   H       E   E  E E   a E.   E.    E H
|------------^-8-11-9-|-8h9----8---------------|
|------------^-9------|-------------11-9-------|
|-10---------^10------|------------------------|
|---------------------|------------------------|
|---------------------|------------------------|
|---------------------|------------------------|


  Q   S  S  S S a E E a  E E    E  E  +H.
|----------------------------|-----------------------|
|-------------8-8h9-8-9s11-9-|-11s13-(13)------------|
|----------10----------------|-----------------------|
|-------10-------------------|-----------------------|
|----------------------------|-----------------------|
|----------------------------|-----------------------|

                                            |----3----|
  Q   S   E    S  S  Q      +S   S  S    a  Q    Q    Q    Q.      S  S
|-------------11-11s13-----(13)-11----|---------------------------------|
|-------^13------------------------14-|-13h14---13---11-----------------|
|-------^-x---------------------------|-------------------13------13p12-|
|-------------------------------------|---------------------------------|
|-------------------------------------|---------------------------------|
|-------------------------------------|---------------------------------|


   Q.      a  E  E.    E.    E    a  H       E  S  S  S  S  S  S
|------------------------------|------------------------------------|
|------------------------------|------------------------------------|
|---------13s15-13----12-------|------------------------------13----|
|-15------13s15-13----------13-|-13h15------------------13-15-------|
|------------------------------|---------------13-15-15-------------|
|------------------------------|------------------------------------|


   E  Q.       E.   E.    a  E    H           +E   S  S  S  S  S  S
|------------------------------|------------------------------------|
|------------^14--^13----------|------------------------------------|
|-13s15------^13--^13----13s15-|-13----------(13)----------12-13-15-|
|------------------------------|------------------13-15-15----------|
|------------------------------|------------------------------------|
|------------------------------|------------------------------------|


   E.    E.    E  E.    E.    E    H.                +E   E
|-------------------------------|----------------------------|
|-13-------------16----14----13-|-13----------------(13)-16--|
|-------15----13----------------|----------------------------|
|-------------------------------|----------------------------|
|-------------------------------|----------------------------|
|-------------------------------|----------------------------|


   H        E.    T  T  E  E    a  E.    a E.    E  E  Q.
|-13-------16----15h16p15-13-|-13s11----11s8------------------|
|----------------------------|------------------11-11s13------|
|----------------------------|--------------------------------|
|----------------------------|--------------------------------|
|----------------------------|--------------------------------|
|----------------------------|--------------------------------|


   S  S  S  S  E  a  E  Q    E  T  T  S    W
|---------------------------------------|--------------------|
|-------------11-11s13-11---------------|--------------------|
|-------10-13---------------13-12h13p12-|-10-----------------|
|----10---------------------------------|--------------------|
|---------------------------------------|--------------------|
|---------------------------------------|--------------------|


   H       H          H.            E  E
|--8---------------|---------------13-11-|
|--9---------------|---------------------|
|-10---------------|---------------------|
|------------------|---------------------|
|------------------|---------------------|
|------------------|---------------------|


   H       H          H       Q   Q
|------------------|-------------------|
|-11---------------|-11-------8--------|
|------------------|--------------8----|
|------------------|-------------------|
|------------------|-------------------|
|------------------|-------------------|


   X  S  T  X  +E   +H.              +H.            +E   E
|-15p13-15-13-(13)-(13)-----------|-(13)-----------(13)-11-|
|---------------------------------|------------------------|
|---------------------------------|------------------------|
|---------------------------------|------------------------|
|---------------------------------|------------------------|
|---------------------------------|------------------------|


   H.            E  E    H        H
|------------------11-|-------------------|
|-13------------11----|-13-------11-------|
|---------------------|-------------------|
|---------------------|-------------------|
|---------------------|-------------------|
|---------------------|-------------------|


   H       E  Q.        H        +E   E  E  E
|-13---------11------|---------------11-13-11-|
|--------------------|-13-------(13)----------|
|--------------------|------------------------|
|--------------------|------------------------|
|--------------------|------------------------|
|--------------------|------------------------|


   H.           Q      H.           Q
|-------------------|--------------------|
|-13----------------|--------------------|
|-------------------|-13-----------------|
|-------------------|--------------------|
|-------------------|--------------------|
|-------------------|--------------------|


   H       E  Q.        H        +E   E  E  E
|-13---------11------|---------------11-13-11-|
|--------------------|-13-------(13)----------|
|--------------------|------------------------|
|--------------------|------------------------|
|--------------------|------------------------|
|--------------------|------------------------|


   H.           Q     H.            E  E
|-------------------|--------------18s16--|
|-11----------------|---------------------|
|-------------------|---------------------|
|-------------------|---------------------|
|-------------------|---------------------|
|-------------------|---------------------|


   H.            Q      W
|--------------------|------------------|
|-18------------16---|------------------|
|--------------------|-17---------------|
|--------------------|------------------|
|--------------------|------------------|
|--------------------|------------------|

                                        |-3-|
   H.            Q      H.            E S S S
|--------------------|-------------------------|
|--------------------|-----------16---9-8h9p8--|
|-15------------17---|-18----------------------|
|--------------------|-------------------------|
|--------------------|-------------------------|
|--------------------|-------------------------|
                        H         H

   H       E   E  E E   a E.   E.    E H
|------------^-8-11-9-|-8h9----8---------------|
|------------^-9------|-------------11-9-------|
|-10---------^10------|------------------------|
|---------------------|------------------------|
|---------------------|------------------------|
|---------------------|------------------------|


  Q   S  S  S S a E E a  E E    E  E  +H.
|----------------------------|-----------------------|
|-------------8-8h9-8-9s11-9-|-11s13-(13)------------|
|----------10----------------|-----------------------|
|-------10-------------------|-----------------------|
|----------------------------|-----------------------|
|----------------------------|-----------------------|

                                 |--3--|    |----3----|
  Q   S   E    S  S  Q      +S   S  S  S    Q    Q    Q    H
|-------------11-11s13-----(13)-11h13p11-|-------------------------|
|-------^13------------------------------|-14---13---11------------|
|-------^-x------------------------------|----------------13-------|
|----------------------------------------|-------------------------|
|----------------------------------------|-------------------------|
|----------------------------------------|-------------------------|

                       |-3-|
  Q    S  S S S E  E E S S S   a  W                   W            W
|----------------------------|---------------------|------------|--------*|
|-----------8-9-9s11-9-8-9-8-|---------------------|------------|--------*|
|--------10-----8s10---------|-8s10----------------|------------|--------*|
|-----10---------------------|---------------------|------------|--------*|
|----------------------------|---------------------|------------|--------*|
|----------------------------|---------------------|------------|--------*|




Guitar 2

  E E E E E E E E   E E E E E E E E   E E E E E E E E   E E E E E E E E
|---------3-------|---------6-------|---------3-------|-------------5----|
|-------3---3-----|-------3---3---3-|-------4---4-----|-----4------------|
|-----3-----------|-----3-------3---|-----5-----------|---3---3---5---5--|
|---5-------------|---3-------------|---5-------------|---------3--------|
|---------------0-|-1---------------|-3-----------3-5-|-6----------------|
|-5-----------5---|-----------------|-----------------|------------------|


   E E E E E E E E    E  E E E E E  E  E
|----------3-------|-----------6---------|
|--------3---3-----|---------3---3-----3-|
|------------------|-------3--------3----|
|------5-----------|-----3---------------|
|----5-----------0-|--1------------------|
|--5-----------5---|---------------------|


   E E E E E E E E    E  E E E E E E E
|----------3-------|---------------5--------|
|--------4---4-----|-------4----------------|
|------5-----------|-----3---3---5---5------|
|----5-------------|-----------3------------|
|--3-----------3-5-|--6---------------------|
|------------------|------------------------|


   E E E E E   E  E E     E  E    E  E E E E E
|---------------------|------------------------|
|------3----------3---|-----------4--------3---|
|----3---------3----3-|------5-------5---3---3-|
|---------------------|------------------------|
|----------1----------|---3------------1-------|
|--5-----7------------|------------------------|


  E E E     E     E E    E E    E  E   E  E E E E E
|----------------------------|--------------3--------|
|-----3----------------------|---------3------3---3--|
|---3-------3-----5-3--------|-----3------3-----3----|
|----------------------------|-----------------------|
|------------------------1-0-|-----------------------|
|-5--------------------------|--5--------------------|


  E E E     E     E    E E       E          E E    E    E  E  E E  E
|-------------------------------------|---------------------------------|
|-----3------------------3------------|------------4------------3-------|
|---3------------------3---------3----|-------5---------5-----3----3----|
|-------------------------------------|---------------------------------|
|-----------0-----1-------------------|-----3--------------1------------|
|-5-----------------------------------|---------------------------------|


   E  E E     E  E  E     E  E       E E E E H
|------------------------------|-------------3----------------------|
|-------3-----------------3--2-|-----------3------------------------|
|-----3-------3-----2----------|---------3--------------------------|
|------------------------------|-------5----------------------------|
|----------------5-------------|------------------------------------|
|--5---------------------------|-----5------------------------------|


   E  E  E E   Q       E     E    E  E  E  E   E   E     E     E
|------------------------------|---------------3--------------------|
|--------4---------------------|--------3----------3-----------3----|
|-----5----3-------------------|-----3-----3-------------3----------|
|------------------------------|------------------------------------|
|--3-----------1---------------|------------------------------------|
|----------------------3-----0-|--5---------------------------------|


   E  E     E  E  E  E     E  E    E  E E E   E  E    Q
|-------------------------------|-------------5--------------|
|--------------4--3-----------3-|--3------3------3-----------|
|-----------5--------------3----|-------5-------------5------|
|-----5--------------3----------|-----4----------------------|
|-------------------------------|----------------------------|
|-------------------------------|----------------------------|


   E E E E  E  E        E  E      +E  E       Q     E  E  E E
|------3----------------3----|------------------------------3-|
|----4---4-----------------3-|----(3)---------3-----------3---|
|--------------5-------------|--------2----------------3------|
|----------------------------|--------------------------------|
|-----------3----------------|--------------------------------|
|----------------------------|----------------------5---------|


   Q           E     E  E E  E  E          E E E E   H
|---------------------------------------|------------3-------|
|--------------------3------------------|--------3-----------|
|--------------3--------5-3-------------|------3-------------|
|---------------------------------------|----5---------------|
|--1-------------------------1--0-------|--------------------|
|---------------------------------------|--5-----------------|


   E E E E E E E E    E  E E E E E  E  E
|----------3-------|-----------6---------|
|--------3---3-----|---------3---3-----3-|
|------3-----------|-------3--------3----|
|----5-------------|-----3---------------|
|----------------0-|--1------------------|
|--5-----------5---|---------------------|


   E E E E E E E E    E E E E E E E E
|----------3-------|------3-------5----|
|--------4---4-----|--------4---6---6--|
|------5-----------|----3--------------|
|----5-------------|----------3--------|
|--3-----------3-5-|--6----------------|
|------------------|-------------------|


   E            E    E  E E E E E     E  E E E E E   E   E
|-------------------------3-------|------------6-----------|
|-----------------------3---3-----|----------3---3-------3-|
|--------------------3------------|--------3---------3-----|
|---------------5-----------------|------3-----------------|
|-------------------------------0-|---1--------------------|
|--5--------------------------5---|------------------------|


   E  E E E E E  E  E    E E E E  E E E E
|-----------3---------|------3--------3---|
|---------4---4-------|--------4--------4-|
|-------5-------------|-------------5-----|
|-----5---------------|----5------3-------|
|--3-------------3--5-|--6----------------|
|---------------------|-------------------|


   E E E E E  E  E E    E E E E   E   E  E  E
|--------------------|------------5-----------|
|--------4----4----3-|------3---------6--3--6-|
|------3---3-----3---|----3-----------0-------|
|----5---------------|--------3---------------|
|--6-----------------|--5---------------------|
|--------------------|------------------------|


   E  E E E E E E E    E  E E E E E E E
|-----------3-------|--------------------|
|---------4---4---3-|---------3-----3----|
|-------5-------5---|-------3---2-3---3--|
|-----5-------------|-----3--------------|
|--3----------------|--1-----------------|
|-------------------|--------------------|


   E E E E E  E  E E    E E E E   E   E  E  E
|----------3---------|------------5-----------|
|--------4----4----4-|------3---------6--3--6-|
|------3---------3---|----3-------------------|
|----5---------------|--------3---------------|
|--6-----------------|--5---------------------|
|--------------------|------------------------|


   E  E E E E E E E   E  E E E E E  E  E
|-----------3-------|------3--------------|
|---------4---4---3-|--------4---6--6--3--|
|-------5-------5---|---------------------|
|-----5-------------|----5-----3----------|
|--3----------------|-6-------------------|
|-------------------|---------------------|


   E  E E E E E  E E    E E E E E E E E
|-----------3--------|----------6-------|
|---------3---3------|--------3---3---3-|
|-------3------------|------3-------3---|
|-----5--------------|----3-------------|
|------------------0-|--1---------------|
|--5-------------5---|------------------|


   E  E E E E E  E E    E  E E E  E E E E
|-----------3--------|----------------5--------|
|---------4---4------|-------4-----------------|
|-------5------------|-----3---3----5---5------|
|-----5--------------|------------3------------|
|--3-------------3-5-|--6----------------------|
|--------------------|-------------------------|


   E E E E E   E  E E     E  E    E  E E E E E
|---------------------|------------------------|
|------3----------3---|-----------4--------3---|
|---------------------|------------------------|
|----5---------3----3-|------5-------5---3---3-|
|--------0-1----------|---3------------1-------|
|--5------------------|------------------------|


  E E E     E     E E    E E    E  E   E  E E E E E
|----------------------------|--------------3--------|
|----------------------------|------------3---3---3--|
|-----3----------------------|---------3--------3----|
|---5-------3-------3--------|-----5-----------------|
|-----------------3------1-0-|-----------------------|
|-5--------------------------|--5--------------------|


  E E E     E     E    E E       E          E E    E    E  E E E E
|----------------------------------------|-------------------------|
|------------------------3---------------|---------4-------------3-|
|-----3------------------3---------------|---------3-----------3---|
|---5------------------3---------3-------|----5---------5----3-----|
|-----------0-----1----------------------|--3--------------1-------|
|-5--------------------------------------|-------------------------|


  E E  E    E   E  E E E          E E E. E.  Q.       W            W
|----------------------------|--------------[3]----|------------|--------*|
|----------------------------|-----------3---------|------------|--------*|
|------3--------5--3---------|--------3------------|------------|--------*|
|---5-------5----------------|------5--------------|------------|--------*|
|--------------------1-0-----|---------------------|------------|--------*|
|-5--------------------------|----5----------------|-(5)--------|-(5)----*|
                                  W                  +W           +W




Guitar 3

   <                  <
   TP                 TP            TP TP
   W                  H.            E  E
|------------------|---------------13----|
|-13---------------|-13---------------16-|
|------------------|---------------------|
|------------------|---------------------|
|------------------|---------------------|
|------------------|---------------------|
   <                  <
   TP                 TP
   W                  H        H
|------------------|------------------------|
|------------------|------------------------|
|-15---------------|-15---------------------|
|------------------|------------------------|
|------------------|------------------------|
|------------------|------------------------|


Rest for 8 measures


   >
   TP          TP   TP       TP   TP TP TP TP  TP
   H           E.   E.       E    E  E  E  E   Q         Q
|------------------------------|------------------------------------|
|-11---------------------------|------------------------------------|
|-------------13---12-------10-|-13-12-10-----10--------------------|
|------------------------------|----------13------------------------|
|------------------------------|------------------------------------|
|------------------------------|------------------------------------|

   TP                              TP         TP
   W                               H         +E  Q.
|-------------------------------|----------------------------|
|-11----------------------------|-13--------(13)-------------|
|-------------------------------|----------------------------|
|-------------------------------|----------------------------|
|-------------------------------|----------------------------|
|-------------------------------|----------------------------|

   TP       TP                     TP               TP
   H        H                      H                H
|-13-------11----------------|--------------------------------|
|----------------------------|----13--------------------------|
|----------------------------|---------------------10---------|
|----------------------------|--------------------------------|
|----------------------------|--------------------------------|
|----------------------------|--------------------------------|

   TP                   TP                 TP        TP
   H                    H                  H        +E  Q.
|---------------------------------------|--------------------|
|-11------------------------------------|--------------------|
|----------------------13---------------|-10-------(10)------|
|---------------------------------------|--------------------|
|---------------------------------------|--------------------|
|---------------------------------------|--------------------|
   <                  <
   TP                 TP            TP TP
   W                  H.            E  E
|------------------|---------------13----|
|-13---------------|-13---------------16-|
|------------------|---------------------|
|------------------|---------------------|
|------------------|---------------------|
|------------------|---------------------|
   <                  <
   TP                 TP
   W                  H       H
|------------------|-------------------|
|------------------|-------------------|
|-15---------------|-15----------------|
|------------------|-------------------|
|------------------|-------------------|
|------------------|-------------------|
   <                                  <
   TP                                 TP             TP  TP
   W                                  H.             E   E
|---------------------------------|-----------------13-----|
|-13------------------------------|--13-----------------16-|
|---------------------------------|------------------------|
|---------------------------------|------------------------|
|---------------------------------|------------------------|
|---------------------------------|------------------------|
   <                     <
   TP                    TP
   W                     H        H
|---------------------|-------------------|
|---------------------|-------------------|
|-15------------------|-15----------------|
|---------------------|-------------------|
|---------------------|-------------------|
|---------------------|-------------------|

Rest until end of song


h - hammer on
p - pull off
s - slide
[n]  - artificial harmonic
TP - tremolo picking
x - muted note
< - volume swell louder
> - volume swell softer

W - whole
H - half
Q - quarter
E - 8th
S - 16th
T - 32nd
X - 64th
a - acciaccatura
+ - note tied to previous
. - note dotted

Irregular groupings are notated above the duration line
Low melody durations appear below the staff
Login or Register to remove this ad.

3 comments on Dream of a Whale

Damn Gravity for wasting some

Damn Gravity for wasting some of the game's best tracks on maps no player visits for more than a few minutes. :(

Really, that's too bad. I

Really, that's too bad. I don't play the game so I wouldn't know

Excellent

5

Excellent tab; shame about the drop-c tuning, though. :\