Ads

Viking Ship (QuackShot) Guitar Tab

Submitted: Jan 07, 2012 by Omnicide

5
Average: 5 (2 votes)
Download | Listen
Game: QuackShot
Composer(s): Tokuhiko Uwabo
Style: Arrangement, Fingerstyle

AutoScroll: Slow | Medium | Fast
Viking Ship
Quackshot
Composed by Tokuhiko Uwabo
Arranged by William Geesdorf


Standard Tuning
(Capo 1)


     H        E  E       E  E  E  S S E  E     E  E  E  E  E  E     E  E  E  E  E  S S  
E||-----------------||---0----------0-1-----|--0--------------0--|--5--3-----1-----0---|
B||--------------2--||------------3------3--|--------------------|-------------------3-|
G||-----------------||*--------2------3-----|--------2-----0-----|--------2-----3------|
D||-----------------||*-----2-----2---------|-----2-----2--------|-----2-----2---------|
A||-----------------||---0------------1-----|--------------1-----|--0-----------1------|
E||-----------------||----------------------|--0-----------------|---------------------|


  S  S E  E  S  S E  E     S  S  S S S S S  S S  S  S  S    E  E  E  E  E  E   
-------0----------0--1--|--------------------------------|--------------------|
--2h-3-------2h-3-------|--3h-5p-3---3---0h-1-1h-3p-1p-0-|--------------------|
----------2-------3-----|--4-------5---5------2----------|--1-----------2--4--|
-------2-----2----------|--------------------------------|--2-----------2-----|
------------------1-----|---------------------2----------|--------------------|
--0---------------------|--0-------------0---------------|--0--------0--4-----|


  E  E  E  S  S E  S  S    Q    E  E  S S  S  S    E.  S E  E  E  E     Q    Q    Q     
-------------------0h-1-|--4----------0---------|--------------------|-----------------|
--1--------0h-1-3-------|--5----5-------3p-1p-0-|--2---2----2--0--2--|--3--------------|
--2-------------2-------|-------4---------------|--2---2----2--2--2--|--2----3---------|
------------------------|-----------------------|--------------------|--3----0---------|
----------------3--2----|-------------2---------|--0-----0-----0-----|------------1----|
--1--0--1--0------------|--0-------0------------|--------------------|-----------------|


  E.  S E  E  E  E     Q    Q    Q       Q    Q    Q       Q    Q    E  E   
--------------------|-----------------|------------0----|--1----3-------1--|
--2---2----2--0--2--|--3----5----3----|--2----3---------|--3----3-------3--|
--2---2----2--2--2--|--2----3----3----|--2----2----2----|------------------|
--------------------|--3----0---------|-----------------|------------------|
--0-----0-----0-----|------------1----|--0--------------|-------2----0-----|
--------------------|-----------------|-------4----3----|--1---------------|


  Q    E  E  E  S  S    S S S S S  S  S S  S S  S S    E  E  E  E  E  E     
--5------------------|------------------------------|---------------------||
--5----5-------------|--3---------------5p-3--------|-----------------2---||
-------6-----6-------|--0-----0-2h-4p-2------4p-2---|--------------------*||
-------------7--2h-3-|------3---------------------3-|--2--0--2--3--------*||
---------------------|------------------------------|--------3--5---------||
--0-------0----------|--1-------------3---------1---|--0-----1--3-----1---||


                        ^                 
  E  E  E  S S E  E     E  S H        S   
--0----------0-1-----|-------0----------||
-----------3------3--|--2--3------------||
--------2------3-----|--2---------------||
-----2-----2---------|--2---------------||
--0------------1-----|--0---------------||
---------------------|------------------||




Duration Legend
---------------
W - whole
H - half
Q - quarter
E - 8th
S - 16th
T - 32nd
X - 64th
. - note dotted
|-n-|  - n-tuplets


Tablature Legend
----------------
h - hammer on
p - pull off
^ - brush up
Login or Register to remove this ad.

1 comment on Viking Ship

I like play it (with a slower

5

I like play it (with a slower tempo else I can't)