Login or Register to remove this ad.

Downside Ballad (Pyre) Guitar Tab

Submitted: Aug 10, 2017 by hslesperance

0
Download | Listen
Game: Pyre
Composer(s): Darren Korb
Style: Transcription

AutoScroll: Slow | Medium | Fast
Downside Ballad
Pyre
Composed by Darren Korb
Tabbed by hslesperance
8/10/17

Standard Tuning


 12/8
  E E E E E E E E E E E E   E E E E E E E E E E E E   E E E E E E E E E E E E   E E E E E E E E E E E E
|-----0-----0-----0-----0-|-----0-----0-----0-----0-|-----0-----0-----0-----0-|-----0-----0-----0-----0-|
|---0-----0-----0-----0---|---0-----0-----0-----0---|---0-----0-----0-----0---|---0-----0-----0-----0---|
|-------------------------|-------------------------|-------------------------|-------------------------|
|-------------------------|-------------------------|-------------------------|-------------------------|
|-0-----0-----0-----0-----|-0-----0-----0-----0-----|-0-----0-----0-----0-----|-0-----0-----0-----0-----|
|-------------------------|-------------------------|-------------------------|-------------------------|


  E E E E E E E E E E E E   E E E E E E E E E E E E   E E E E E E E E E E E E   E E E +E  E E E E E E E E
|-----0-----0-----0-----0-|-----0-----0-----0-----0-|-----0-----0-----0---0---|-----0-(0)---0-----0---0---|
|---0-----0-----0-----0---|---0-----0-----0-----0---|---0---0-0---0-0---0---0-|---0-------0-----0---0---0-|
|-------------------------|-------------------------|-------------------------|---------------------------|
|-------------------------|-------------------------|-------------------------|---------------------------|
|-0-----0-----0-----0-----|-0-----0-----0-----0-----|-0-----------------------|-0-------------0-----------|
|-------------------------|-------------------------|-------------------------|---------------------------|


  E E E E E E E E E E E E   E E E E E E E E E E E E   E E E E E E E E E E E E   E E E E E E E E E E E E
|---0-----0-------0---0---|---0-----0-------0---0---|---0-----0-------0---0---|---0-----0-------0---0---|
|-----1-----1---1---0---1-|-----1-----1---1---0---1-|-----1-----1---1---0---1-|-----1-----1---1---0---1-|
|-------------------------|-------------------------|-------------------------|-------------------------|
|-------------------------|-------------------------|-------------------------|-------------------------|
|-0-----0-----0-----------|-0-----0-----0-----------|-0-----0-----0-----------|-0-----0-----0-----------|
|-------------------------|-------------------------|-------------------------|-------------------------|


  E E E E E E E E E E E E    E E E E E E E E E E E E   E E E E E E E E E E E E   E E E E E E E E E E E E
|-------0-----------------|--------------0-----0-----|---0-----0-------0-0-----|---0-0---0-----0---------|
|-----3---3---------0-----|------3-----3---3-----3---|-1---1-----1---1-----1-1-|-------1---1-----1-0-1-1-|
|---2-------2-----2---2---|----1-----1-------1-----1-|-------2-----2-----------|-2-----------2-----------|
|-3-------------1-------1-|-/2-----2-----------------|-------------------------|-------------------------|
|-------------2-----------|--------------------------|-------------------------|-------------------------|
|-------------------------|--------------------------|-------------------------|-------------------------|


  E E E E E E E E E E E E    E E E E E E E E E E E E   E E E E E E E E E E E E   E E E E E E E E E E E E
|-------0-----------------|--------------0-----0-----|---0-----0-------0---0---|---0-----0-------0---0---|
|-----3---3---------0-----|------3-----3---3-----3---|-1---1-----1---1---1---1-|-----1-----1---1---0---1-|
|---2-------2-----2---2---|----1-----1-------1-----1-|-------------------------|-------------------------|
|-3-------------1-------1-|-/2-----2-----------------|-------------------------|-------------------------|
|-------------2-----------|--------------------------|-------0-----0-----------|-0-----0-----0-----------|
|-------------------------|--------------------------|-------------------------|-------------------------|


  E E E E E E E E E E E E   E E E E E E E E E E E E   E E E E E E E E E E E E   E E E E E E E E E E E E
|---0-----0-------0-------|---0-----0-------0---0---|---0-----0-------0---0---|---0-----0-------0---0---|
|-----1-----1---1-----1-1-|-----1-----1---1-------1-|-----1-----1---1---0---1-|-----1-----1---1---0---1-|
|-------2-----------------|-------------------------|-------------------------|-------------------------|
|-------------------------|-------------------------|-------------------------|-------------------------|
|-------------0-----0-----|-------------0-----0-----|-0-----0-----0-----------|-0-----0-----0-----------|
|-1-----------------------|-2-----2-----------------|-------------------------|-------------------------|


  E E E E E E E E E E E E   E E E +E  E E +E  E E E E E   E E E E E E E E E E E E   E E E E E E E E E E E E
|-----0---0-------0---0---|-----0-(0)---0-(0)---0-----0-|---0-----0-------0---0---|---0-----0-------0---0---|
|---1-------1---1-------1-|---1-------1-------1---0-1---|-----1-----1-1-1---0---1-|-----1-----1---1---0---1-|
|-------2-----------------|-----------------------------|-------2-----------------|-------2-----2-----------|
|-------------------------|-----------------------------|-------------------------|-------------------------|
|-------------0-----0-----|-----------------------------|-0-----------------------|-0-----------------------|
|-1-----------------------|-2---------------------------|-------------------------|-------------------------|


  E E E E E E E E E E E E   E E E E E E E E E E E E   E E E E E E E E E E E E    E E E E E E E E E E E E
|---0-----0-------0---0---|---0-----0-------0-0-0---|-------0-----------------|--------------0-----0-----|
|-----1-0---1-0-1---0---1-|-----1-0---1---1-------1-|-----3---3---------0-----|------3-----3---3-----3---|
|-------------------------|-------------------------|---2-------2-----2---2---|----1-----1-------1-----1-|
|-------------------------|-------------------------|-3-------------1-------1-|-/2-----2-----------------|
|-------------------------|-------------------------|-------------2-----------|--------------------------|
|-1-----------------------|-2-----------2-----------|-------------------------|--------------------------|


  E E E E E S S E E E E E E   E E E E E S S E E E E E E   E E E E E S S E E E E E E   E E E E E S S E E E E E E
|-----------------0---0-----|-----------------0-----0---|-----------------0---0-----|-----------------0-----0---|
|-----2-0-2---------1---1---|-----2-0-2---------1-----1-|-----2-0-2---------1---0-1-|-----2-0-2---------1-----1-|
|-----------2-2s5---------2-|-----------2-2s5-----2-----|-----------2-2s5-----------|-----------2-2s5-----2-----|
|---2-----------------------|---2-----------------------|---2-----------------------|---2-----------------------|
|-0-------------------------|-0-------------------------|-0-------------------------|-0-------------------------|
|---------------------------|---------------------------|---------------------------|---------------------------|

                           6/8           12/8
  E E E E E E E E E E E E   E E E E E E   E E E E E E E E E E E E   E E E E E E E E E E E E    E E E E E E E E E E E E
|---0-----0-----0---------|---0-----0---|---0-----0-------0---0---|-------0-----------------|--------------0-----0-----|
|-----1-----1-----1-0-0-1-|-0---1-0---1-|-----1-----1---1---0---1-|-----3---3---------0-----|------3-0---3---3-----3---|
|-2-----2-----2-----------|-------------|-------------------------|---2-------2-----2---2---|----1-----1-------1-----1-|
|-------------------------|-------------|-------------------------|-3-------------1-------1-|-/2-----------------------|
|-------------------------|-------------|-0-----0-----0-----------|-------------2-----------|--------------------------|
|-------------------------|-------------|-------------------------|-------------------------|--------------------------|


  E E E E E S S E E E E E E   E E E E E S S E E E E E E   E E E E E S S E E E E +E  E   E E E E E S S E E E E E E
|-----------------0-----0---|-----------------0-----0---|-----------------0-----------|-----------------0-----0---|
|-----2-0-2---------1-----1-|-----2-0-2---------1-----1-|-----2-0-2---------1-0-(0)-1-|---2---0---2-------1-----1-|
|-----------2-2s5-----2-----|-----------2-2s5-----2-----|-----------2-2s5-------------|-----2---2---2s5-----2-----|
|---2-----------------------|---2-----------------------|---2-------------------------|---------------------------|
|-0-------------------------|-0-------------------------|-0---------------------------|-0-------------------------|
|---------------------------|---------------------------|-----------------------------|---------------------------|


  E E E E E E E E E E E E   E E E E E E E E E E E E   E E E E E E E E E E E E   E E E E E E E E E E E E
|---0-----0-----0---0-----|---------0-0-----0---0-0-|---------0-----------0---|-----0---0-------0-------|
|-----1-0---1-----1---0-1-|-1---1-0-------1---0-----|---1-0-1---1---1-0-0---1-|---1---0---1---1---0-0-1-|
|-------------------------|-------------2-----------|-------------------------|-------------------------|
|-------------------------|-------------------------|-------------------------|-------------------------|
|-0-----------0-----------|---0---------------------|-0-----------0-----------|-0-----------3-----------|
|-------------------------|-------------------------|-------------------------|-------------------------|


  E E E E E E E E E E E E   E E E E. E.  H.
|-----0---0-------0---0---|-----0-------^0-----*|
|---1---0---1---1---0---1-|---1---0--1--^0-----*|
|-------------------------|-------------^2-----*|
|-------------------------|-------------^2-----*|
|-0-----------0-----------|-0-----------^0-----*|
|-------------------------|--------------------*|

/ - slide upward
s - slide

H - half
E - 8th

+ - note tied to previous
. - note dotted
Login or Register to remove this ad.

1 comment on Downside Ballad

Here are some fills that I

Here are some fills that I didn't include in the actual tab

0:00
e---12--12---
B---12--12---
G---14--14---
D------------
A------------
E------------

0:39
e---15----13-12-13--------12---------------
B---17----15-13-15--------13----15---------
G-------------------------------------14---
D------------------------------------------
A------------------------------------------
E------------------------------------------

0:54 - Tremolo Picking
e---12------------------------------------12---
B-------------15------13----12--------13-------
G----------------------------------------------
D----------------------------------------------
A----------------------------------------------
E----------------------------------------------

1:33
e--------------------------------------------0--0-5--5-0--0--7--7-8--8---
B---12--12-13--13----0--0--0-1--1-0-1-0-1--------------------------------
G------------------------------------------------------------------------
D------------------------------------------------------------------------
A------------------------------------------------------------------------
E------------------------------------------------------------------------

1:44
e-------------------------0--5--5-0--0-7--7-8--8---
B---1-0-1-0-1--1-0-1-0-----------------------------
G--------------------------------------------------
D--------------------------------------------------
A--------------------------------------------------
E--------------------------------------------------

1:51
e-----------0--0---0------5--5-7--7-5--5-8--8--8---
B---1-0-1-0------1---1-----------------------------
G--------------------------------------------------
D--------------------------------------------------
A--------------------------------------------------
E--------------------------------------------------

1:58
e---------------------------0--0--0--5--5-7--7--7---
B---1-0-1-0-1--1-0-1-0-3--3-------------------------
G---------------------------------------------------
D---------------------------------------------------
A---------------------------------------------------
E---------------------------------------------------

2:18
e---7--7----8--8-10--10-8---
B---------------------------
G---------------------------
D---------------------------
A---------------------------
E---------------------------

3:34
e---15----13-12-13----12---
B---17----15-13-15----13---
G--------------------------
D--------------------------
A--------------------------
E--------------------------

3:45
e---15----13-12-13-15----------15-------
B---17----15-13-15-17----15-17-17--15---
G----------------------------------16---
D---------------------------------------
A---------------------------------------
E---------------------------------------