Ads

Symposium Magarum (Puella Magi Madoka Magica) Guitar Tab

Submitted: Jul 30, 2015 by JordanVS

5
Average: 5 (9 votes)
Download | Listen
Game: Puella Magi Madoka Magica
Composer(s): Yuki Kajiura
Style: Arrangement, Fingerstyle

This song is also called Oktavia von Seckendorff's Theme

AutoScroll: Slow | Medium | Fast
Symposium Magarum                                                     
Oktavia von Seckendorff's Theme
Puella Magi Madoka Magica
Yuki Kajiura
JordanVS

Tempo : 140 ~ 3/4

                 ^ v    ^                                                                                  
     Q    Q.     S S    Q       E  E  Q.     E     E  S  S Q    E  E     Q    Q    Q       Q    Q    Q     
E||------------------|-------|------------------|---------------------|-----------------|-----------------|
B||------------------|-------|--------1---------|---------------------|-----------------|------------4----|
G||--------------2-2-|--2----|--2--3---------3--|--2--3p-2-1----2--3--|--2---------0----|-------2---------|
D||--------------2-2-|--2----|------------------|---------------------|-------2---------|--3--------------|
A||--------------0-0-|--0----|--0---------------|--0------------------|--0--------------|--1----0---------|
E||------------------|-------|------------------|---------------4-----|-----------------|------------4----|


                                           >                 >    >    >       >                   >                 
  E  E  Q.     E     E  S  S Q    E  E     Q    Q    Q       Q    Q    Q       E  E  Q    E  E     E  E  Q    E  E   
------------------|---------------------|------------0----|-------1----0----|--------0----------|-------------------|
--------1---------|---------------------|-----------------|--4--------------|----------------3--|--------3-------1--|
--2--3---------3--|--2--3p-2-1----2--3--|--2--------------|-----------------|-----2-------------|-----2-------------|
------------------|---------------------|-------2---------|-----------------|--3----------0-----|--2----------------|
--0---------------|--0------------------|--0---------0----|-------1----0----|--5----------------|--3----------3-----|
------------------|---------------4-----|-----------------|--4--------------|-------------------|-------------------|


  >                                                                                                    
  E  E  Q    E  E     E  E  Q    E  E     E  E  E  E  E  E     E  E  E  E  E  E     E  E  E  E  E  E   
-------------------|-------------------|-----------------0--|--1--0--------------|--------------------|
--------1-------0--|--------0----------|--------0--1--3-----|--------3--1--0-----|--------0-----------|
-------------------|----------------2--|--1--2--------------|-----------------2--|--1--2-----2--1-----|
--0--3-------2-----|-----2-------------|--------------------|--0-----2-----3-----|--2--------------3--|
--2----------------|--3----------------|--------------------|--------------------|--------------------|
-------------------|--5----------0-----|--1-----------------|--------------------|--0-----------0-----|


  E  E  E  E  E  E     E  E  Q.     E       E  S  S Q    E  E     Q    Q    Q       Q    Q    Q       E  E  Q.     E   
--------------------|------------------||----------------------|-----------------|-----------------|------------------|
--------------------|--------1---------||----------------------|-----------------|------------4----|--------1---------|
--------------------|--2------------3--||*--2--3p-2-1----2--3--|--2---------0----|-------2---------|--2--3---------3--|
--2--0--------------|-----2------------||*---------------------|-------2---------|--3--------------|------------------|
--------3--2--0-----|--0---------------||---0------------------|--0--------------|--1----0---------|--0---------------|
--0--------------4--|------------------||----------------4-----|-----------------|------------4----|------------------|


  E  S  S Q    E  E     Q    Q    Q       Q    Q    Q       E  E  E  E  E  E     E  E  E  E  E  E   
---------------------|------------0----|--1----0---------|-----0--1--0--------|--------------------|
---------------------|------------1----|--3----2----2----|--3-----------3--1--|--0--L--0-----------|
--2--3p-2-1----2--3--|--2--------------|------------2----|--------------------|--0--2-----2--0-----|
---------------------|-------2---------|-----------------|--0-----------------|--------0--------3--|
--0------------------|--0---------0----|-------1----0----|--------------------|--------------------|
---------------4-----|-----------------|--4--------------|--------------------|--3-----------------|


  E  E  E  E  E  E     E  E  E  E  E  E     E  E  Q    Q       Q    Q    Q       Q    Q    Q       E  E  E  E  E  E   
--------0-----------|--------------------|------------------|-----------------|-----------------|--0-----L-----0--3--|
--1--3-----3--1--0--|--------------------|--3--1--0---------|------------1----|--0--------------|-----0--2--3--------|
--------------------|--2--0--2--0--------|-------------2----|--1----2---------|-------2----2----|--2-----L-----------|
--2-----------------|--3-----------3--2--|--3----------0----|------------2----|--0--------------|--------------------|
--------------------|--------3-----------|--0---------------|--2----3---------|-------3----3----|--0-----------------|
--------------------|--1-----------------|-------------1----|--0---------0----|--5---------0----|--------------------|


  E  T  T  S Q    Q       E  E  E  E  E  E     E  T  T S Q    Q       E  E  E  E  E  E     E  E   Q    E  E   
--1--3p-1p-0-1---------|--------------------|------------0---------|-----------------0--|--------10-------8--|
-----------------------|--------0--1--3--6--|--5--6p-5-4-----------|-----------0--1-----|--3--6--------------|
------------------2----|--0--2--------------|--5--------------0----|-----0--2-----------|--------------------|
--0--------------------|--------------0-----|----------------------|--3-----------------|--------------------|
-----------------------|--------------------|--3-------------------|--------------3-----|--2-----------8-----|
-----------------------|--3-----------------|----------------------|--1-----------------|--------------------|


  E   E   Q    E   E      E  E  Q    Q       E   E   E  E   E  E     E  E  E  E  E  E     E  E   E  E  E  E   
--7--10--13-------12--|--10--8--7----8----|--9------12--9---------|--------------------|--------10--7--------|
----------------------|-------------------|-----10---------10--8--|--6--8--6-----------|---------------6--3--|
---------------9------|-------------------|-----------------------|--------------------|-----7---------0-----|
----------9-----------|-------------------|-----------------------|--0-----------------|---------0-----------|
----------------------|---0---------------|--0-------7------0-----|-----------0--------|---------------------|
--0-------------------|--------------0----|-----------------------|--------------3--1--|--3------------------|


  E  E  E  E  E   E     E   S S Q    Q       E  E  Q.     E     E  E  Q.     E     E  E  Q.     E   
--------0--------10--|--8--10-8-7----5----|------------------|------------------|--0---------------|
--5--6---------------|--------------------|--3---------------|--4---------------|------------------|
--------0------------|--------------------|------------------|------------------|--------3------2--|
---------------------|---------------3----|--0--2--3------0--|--1--3--4------1--|--4--5------------|
--3--------8--7---8--|--8-----------------|------------------|------------------|------------------|
---------------------|----------8---------|------------------|------------------|--0---------------|


                                                                   >  >  >                              
  E  E  E  E  E  E     E  E  E  E  E  E     E  E  E  E  S S S S    E  E  Q    Q       E  E  Q    E  E   
--------1-----0-----|--0-----------L-----|----------------------|--0--1--0---------|-------------------|
-----0-----------4--|--0-----------L-----|----------------0-1-3-|------------------|--5--4--6----5--4--|
--3-----3-----------|--1-----------------|--------------2-------|--1--1--1---------|--4--3--5----4--3--|
--------------------|--------------------|--2--0--3--2----------|--2--3--2---------|-------------------|
--------------------|-----0--3--2--5--3--|----------------------|------------------|-------------------|
--1--1--1--1--1--1--|--0-----------0-----|--0-----------0-------|------------------|-------------------|


  E  E  Q.     E     E  S  S Q    E  E     Q    Q    Q       Q    Q    Q       E  E  Q.     E     E  S  S Q    E  E   
------------------|---------------------|-----------------|-----------------|------------------|---------------------|
--------1---------|---------------------|-----------------|------------4----|--------1---------|---------------------|
--2--3---------3--|--2--3p-2-1----2--3--|--2---------0----|-------2---------|--2--3---------3--|--2--3p-2-1----2--3--|
------------------|---------------------|-------2---------|--3--------------|------------------|---------------------|
--0---------------|--0------------------|--0--------------|--1----0---------|--0---------------|--0------------------|
------------------|---------------4-----|-----------------|------------4----|------------------|---------------4-----|


  >                 >    >    >                                                                                         
  Q    Q    Q       Q    Q    Q       E  E  E  E  E  E     E  E  E  E  E  E     E  E  E  E  E  E     E  E  E  E  E  E   
------------0----|--1----0---------|-----0--1--0--------|--------------------|--------0-----------|--------------------|
------------1----|--3----2----2----|--3-----------3--1--|--0--L--0-----------|--1--3-----3--1--0--|--------------------|
--2--------------|------------2----|--------------------|--0--2-----2--0-----|--------------------|--2--0--2--0--------|
-------2---------|-----------------|--0-----------------|--------0--------3--|--2-----------------|--3-----------3--2--|
--0---------0----|-------1----0----|--------------------|--------------------|--------------------|--------3-----------|
-----------------|--4--------------|--------------------|--3-----------------|--------------------|--1-----------------|


  E  E  Q    Q       Q    Q    Q       Q    Q    Q       Q    Q    Q       Q    Q    Q       Q    Q    Q     
------------------|-----------------|-----------------|-----------------|--0---------0----|--1----0---------|
--3--1--0---------|------------0----|--1----0----1----|--3----1----3----|-------3---------|--3----1----4----|
-------------2----|--1----2---------|-----------------|-----------------|--5----4----5----|------------4----|
--3----------0----|------------2----|------------3----|--3----2----3----|--0--------------|--0--------------|
--0---------------|--2--------------|--3--------------|-----------------|-----------------|-----------------|
-------------1----|--0--------------|--1--------------|--1--------------|-----------------|-----------------|

                                                                              1.                   2.
                                                                                                     >  >  >            
  E  E  Q    Q       E  E  Q    Q       E  E  Q    Q       E  E  E  E  E  E     E  E  Q.     E       E  E  E  E  Q      
--0--1--0---------|------------------|------------------|-----------------0--|--5----------------||--5--5--5----------||
--0--1--0---------|--3--5--3---------|--1--3--1---------|--0--1--2--3--4-----|--------1----------||--9--9--9----------||
------------------|--4--5--4---------|------------------|--------------------|---------------3--*||--9--9--9----------||
------------------|------------------|--2--3--2---------|--------------------|-----2------------*||-------------------||
------------------|------------------|------------------|--------------------|--0----------------||--0--0--0----------||
--0----------0----|--0----------0----|--0----------0----|--0-----0-----0-----|-------------------||-------------------||




*The original doesn't have that repetition,it's in there just in case you want to keep looping the song forever!
Also,the sheet I used had it so I just kept it.


Duration Legend
---------------
W - whole
H - half
Q - quarter
E - 8th
S - 16th
T - 32nd
X - 64th
. - note dotted
|-n-|  - n-tuplets


Tablature Legend
----------------
L - tied note
h - hammer on
p - pull off
^ - brush up
v - brush down
Login or Register to remove this ad.

3 comments on Symposium Magarum

Best tab on the site

5

Best tab on the site

Awesome!

5

This is such a beautiful arrangement of this song.

Fantastic! I'm glad I

Fantastic! I'm glad I stumbled onto this one =)