Ads

Symposium Magarum (Puella Magi Madoka Magica) Guitar Tab

Submitted: Dec 27, 2013 by corntastic

3
Average: 3 (2 votes)
Download | Listen
Game: Puella Magi Madoka Magica
Composer(s): Yuki Kajiura
Style: Transcription

AutoScroll: Slow | Medium | Fast
Symposium Magarum
Puella Magi Madoka Magica
Yuki Kajiura
corntastic
24/12/2013


e--5--6--8------6--5-6-5-4---5--6--5---------3---------5----11------------
B---------------------------------------5---------6-----------------------
G-------------------------------------------------------------------------
D-------------------------------------------------------------------------
A-------------------------------------------------------------------------
E-------------------------------------------------------------------------

e--5--6--8------6--5-6-5-4---5--6--5---------12----11----13----12---------
B---------------------------------------5---------------------------------
G-------------------------------------------------------------------------
D-------------------------------------------------------------------------
A-------------------------------------------------------------------------
E-------------------------------------------------------------------------

e----------12----10--------10----8--------8----7--------7----5------------
B------10---------------8--------------6-------------5--------------------
G--10----------------9--------------7-------------5-----------------------
D-------------------------------------------------------------------------
A-------------------------------------------------------------------------
E-------------------------------------------------------------------------

e---------7--8--10--12--13--12--10------------------------------------------------------------
B--9--10----------------------------13--12--10------10--12--10--------------------------------
G-----------------------------------------------13--------------13--10--9---------------------
D--------------------------------------------------------------------------12--10--9----------
A-------------------------------------------------------------------------------------12--11--
E---------------------------------------------------------------------------------------------

e------------------------------------------------------------------------11--
B----------13------11--10-11-10-9---10--11--10---------------------10--------
G-------------------------------------------------9----12----10--------------
D------14--------------------------------------------------------------------
A--12------------------------------------------------------------------------
E----------------------------------------------------------------------------

e------------------------------------------------------12----13----12----9--
B--10--11--13------11--10-11-10-9---10--11--10------------------------------
G-------------------------------------------------9-------------------------
D---------------------------------------------------------------------------
A---------------------------------------------------------------------------
E---------------------------------------------------------------------------

e--10--12--13--12--10--------------------10--12--10-----------------------
B----------------------13--12--------13--------------13--12--10-----------
G-------------------------------------------------------------------------
D-------------------------------------------------------------------------
A-------------------------------------------------------------------------
E-------------------------------------------------------------------------

e--10---------------------------------------------------12L---------------
B------13--12----10----9----10----13----12----10--------------------------
G-------------------------------------------------------------------------
D-------------------------------------------------------------------------
A-------------------------------------------------------------------------
E-------------------------------------------------------------------------

______________________________________________________________________________________

The beginning of this part starts to be played right after the e12 of the
previous measure is played. 

e--------------12--15---13-15-13-------------------8--10--13--12--13-12---
B--12--14--15---------------------------8--10--12-------------------------
G-------------------------------------------------------------------------
D-------------------------------------------------------------------------
A-------------------------------------------------------------------------
E-------------------------------------------------------------------------
				
e-------------8-12--10-13s22----20--19-22-25------------------------------
B--8--10--12--------------------------------------------------------------
G-------------------------------------------------------------------------
D-------------------------------------------------------------------------
A-------------------------------------------------------------------------
E-------------------------------------------------------------------------

e--24--22-20--19~---20----21------24----21--------------------------------
B-----------------------------22--------------22----20--------------------
G-------------------------------------------------------------------------
D-------------------------------------------------------------------------
A-------------------------------------------------------------------------
E-------------------------------------------------------------------------

e--------------------------19---------------------------------------------
B--18--20--18--------------------20----18----------17--18--17-------------
G--------------------19----------------------19---------------------------
D-------------------------------------------------------------------------
A-------------------------------------------------------------------------
E-------------------------------------------------------------------------

e--22--20--22-20-19-------------------------------------------------------
B----------------------22------------------------------19-----------------
G----------------------------19--21--22----19--20--21---------------------
D-------------------------------------------------------------------------
A-------------------------------------------------------------------------
E-------------------------------------------------------------------------

e--------------18--------------------25----24--23--24-25-24---------------
B------19--20------------22--23--24---------------------------------------
G--20---------------------------------------------------------------------
D-------------------------------------------------------------------------
A-------------------------------------------------------------------------
E-------------------------------------------------------------------------

______________________________________________________________________________________

Similarly as before, this measure begins to be played as soon as
the previous measures e24-25-24 is played (not after)

e-----------------------------------------10-12--13--12-------------------
B--------------------------------10-12-13---------------------------------
G------------7------9--7--10--9-------------------------------------------
D--7--10--9-----10--------------------------------------------------------
A-------------------------------------------------------------------------
E-------------------------------------------------------------------------

e--12--11--13----12--11---------------------------------------------------
B-------------------------------------------------------------------------
G-------------------------------------------------------------------------
D-------------------------------------------------------------------------
A-------------------------------------------------------------------------
E-------------------------------------------------------------------------

e------------------------------------------------------------------------11--
B--10--11--13------11--10-11-10-9---10--11--10---------------------10--------
G-------------------------------------------------9----12----10--------------
D----------------------------------------------------------------------------
A----------------------------------------------------------------------------
E----------------------------------------------------------------------------

e------------------------------------------------------12--11--13--12-----
B--10--11--13------11--10-11-10-9---10--11--10----------------------------
G-------------------------------------------------9-----------------------
D-------------------------------------------------------------------------
A-------------------------------------------------------------------------
E-------------------------------------------------------------------------

e--10--12--13--12--10--------------------10--12--10-----------------------
B----------------------13--12--------13--------------13--12--10-----------
G-------------------------------------------------------------------------
D-------------------------------------------------------------------------
A-------------------------------------------------------------------------
E-------------------------------------------------------------------------

e--10-----------------------------------------------------10----------10----12----10----12----13----12----11--
B------13--12----10----9----10----12----13----12----13----------13--------------------------------------------
G-------------------------------------------------------------------------------------------------------------
D-------------------------------------------------------------------------------------------------------------
A-------------------------------------------------------------------------------------------------------------
E-------------------------------------------------------------------------------------------------------------

e--12----13----12--------10----12----10--------------10-------------------
B----------------------------------------------13----------13-------------
G-------------------------------------------------------------------------
D-------------------------------------------------------------------------
A-------------------------------------------------------------------------
E-------------------------------------------------------------------------

e--------------------------17--17--17-------------------------------------
B--12--13--14--15--16--17-------------------------------------------------
G-------------------------------------------------------------------------
D-------------------------------------------------------------------------
A-------------------------------------------------------------------------
E-------------------------------------------------------------------------
Login or Register to remove this ad.