Ads

Sis Puella Magica! (Puella Magi Madoka Magica) Guitar Tab

Submitted: Jul 10, 2012 by Zee Captain (Last updated: Feb 14, 2014)

5
Average: 5 (7 votes)
Download | Listen
Game: Puella Magi Madoka Magica
Composer(s): Yuki Kajiura
Style: Arrangement, Fingerstyle

AutoScroll: Slow | Medium | Fast
Gtr I (E A D G B E) - 'Sis Puella Magica'

This my first tab on gametabs.net so I hope you'll enjoy this. 
*My mistake if the notes are spaced to close to each other.
*Play as in the soundtrack!


Capo 3 (Without one is fine too)

 4/4
  Gtr I (E A D G B E)

  E E E E E E E   E E E E E E E   E E E E E E E E E   E E E E E E E
|---0-2-3-2---0-|---0-2-3-2---0-|-0-2-3-2-0---2h3-0-|---0-2-3-2---0--|
|-0-0-------3---|---0-------3---|-----------3-------|-0-0-------3----|
|---------------|---------------|-------------------|----------------|
|---------0-----|---------0-----|-------0-----------|---------0------|
|---------------|---------------|-3-----------------|----------------|
|---0-----------|-0-------------|-------------0-----|---0------------|


  E E E E E E E   E E E E E E E E E   E E E E E E E E   E E E E E E
|---0-2-3-2---0-|-0-2-3-5-3-2-2h3-0-|---0-2-3-5-7-0-7-|-5-3-2-2h3-0---|
|---0-------3---|-------------------|---0-------------|---------------|
|---------------|-------------------|-----------------|---------------|
|---------0-----|-------0-----------|-----------------|-0-------------|
|---------------|-3-----------------|-----------3---3-|---------------|
|-0-------------|-------------0-----|-0---------------|-------0-------|


                            ~
  E E E E E E E E   E E E E E    E E E E E E E   E E E E E E E
|---0-2-3-5-7-0-7-|-5-3-2h3-7--|---0-2-3-5-7-0-|-7-5-3-5-7h8-7-|----|
|---0-------------|------------|---0-----------|---------------|----|
|-----------------|------------|---------------|---------0---0-|----|
|-----------------|-0----------|---------------|---0-----------|----|
|-----------3---3-|------------|-----------3---|-3-------------|----|
|-0---------------|-----0------|-0-------------|---------------|----|


  E E E   E E E E E E E E E
|-5h7-5-|-3h5-3-2---2-2h3-0-|----|
|-------|---------3---------|----|
|-0---0-|-0---0-------------|----|
|-------|-------------------|----|
|-------|-------0-----------|----|
|-------|-------------0-----|----|

Tablature Legend
----------------
 h   - hammer-on
 ~   - vibrato
Login or Register to remove this ad.

7 comments on Sis Puella Magica!

great arrangment, it sounds

5

great arrangment, it sounds close to the ost & easy to play.

*gasp* Yes! Thank you~

*gasp* Yes! Thank you~

Awesome, easy to play, and

Awesome, easy to play, and sounds right!

how do you do vibrato on a

how do you do vibrato on a guitar? i thought that only worked on stuff like violins where the notes aren't sectioned and you can slide them...

You can sort of do it the

You can sort of do it the same way as a violin, however the vibrato comes not from shortening the string, but tightening of it when you do it that way. Usually though the string is wiggled perpendicular to the neck, rather than parallel.

oh, i guess that makes sense

oh, i guess that makes sense :)

it says 4/4 but the notes are

it says 4/4 but the notes are in 7/8 in some spots